Linkin Park - By Myself Chords & Tabs

 

By Myself Chords & Tabs

Linkin Park Chords & Tabs

Version: 5 Type: Tab 0 ratings
1 star 2 stars 3 stars 4 stars 5 stars
comments

By Myself Tab

   
Song 7:
Title:By Myself
Tunning:Dropped D one half step down
C# G# C# F# A# D#

x|------------------|x
x|------------------|x
x|------------------|x
x|----------7-7--9*-|x  <--4 times
x|----------7-7-----|x
x|-1-1-1-1--7-7-----|x
[ Tab from: http://www.guitartabs.cc/tabs/l/linkin_park/by_myself_tab_ver_5.html ]
and right after the last time....
                                      x|---------|x
                                      x|---------|x
                                      x|---------|x
                                      x|---------|x
                                      x|---------|x
                                      x|-1-1-1-1-|x
   
There is no guitar part in the verse but may want to play the background soft sounds.
  x|------------------------|x                                      x|---------|x
  x|------------------------|x                                      x|---------|x
  x|-5---4---7---5---4/5----|x  <---Let the notes ring              x|---------|x
  x|------------------------|x                                      x|-1-1-1-1-|x
  x|------------------------|x Play this between 2nd & 3rd time---->x|-1-1-1-1-|x
  x|------------------------|x                                      x|-1-1-1-1-|x

Pre-Chorus:
x|------------------|x
x|------------------|x
x|------------------|x
x|----------7-7--9*-|x  <--4 times
x|----------7-7-----|x
x|-1-1-1-1--7-7-----|x

Chorus:
x|------------------|x
x|------------------|x
x|------------------|x <---play four times
x|7-7-7---3-3-3---0-|x
x|7-7-7---3-3-3---0-|x
x|7-7-7-7-3-3-3-3-0-|x

Verse
Pre-Chorus
Chorus

Bridge
x|----------------|x
x|----------------|x
x|----------------|x
x|---------7------|x  <--8 times
x|---------7------|x
x|-1-1-1-1/7------|x

Intro
Pre-Chorus
Chorus(x3)
Comments