Linkin Park - By Myself Chords & Tabs

 

By Myself Chords & Tabs

Linkin Park Chords & Tabs

Version: 4 Type: Tab 0 ratings
1 star 2 stars 3 stars 4 stars 5 stars
comments

By Myself Tab

   
By Myself-Linkin Park
Hybird Theory
Transcribed by: Allen, and Trevor

Drop Db
Db Ab Db Gb Bb Eb

Intro:

e-----------------------------------------------------------------
b-----------------------------------------------------------------
g-----------------------------------------------------------------
d----------------------------------------1-1---1-1--1-------------
a----------------------------------------0-0---0-0--0-------------
d-----------------------------------------------------------------

Fig 1.

e-----------------------------------------------------------------
b-----------------------------------------------------------------
g-----------------------------------------------------------------
d-7--7---(2.9)-----(2.9)----1-1--1-1---1--------------------------
a-7--7---(2.9)-----(2.9)----0-0--0-0---0--------------------------
d-7--7---(2.9)-----(2.9)----1-1--1-1---1--------------------------
     						   
Verses:
[ Tab from: http://www.guitartabs.cc/tabs/l/linkin_park/by_myself_tab_ver_4.html ]
e------------------------10----------------8------7---------------
b-13----------12--------------------------------------------------
g-------------------------7----------------5------4---------------
d-10-----------9----------------------------------0---------------
a-12----------10----------8----------------7----------------------
d-----------------------------------------------------------------

Chorus:

e-----------------------------------------------------------------
b-----------------------------------------------------------------
g-----------------------------------------------------------------
d-----------------------------------------------------------------
a-7------------3--3-3--3---0----------7------------3--3-3--3---0--
d-7------------3--3-3--3---0----------7------------3--3-3--3---0--
               pm                                                             
  
thatís about all

the other tabs are copied from the tab book, but what
people fail to realize is that the linkin park tab book has
way too many errors in it, i know this cuz i have it..........
so this is the real way to play it, the intro and Fig 1. are
taken from a G.W. lesson with Brad from LP


trevor jones
timmy91199@yahoo.ca
Comments