Linkin Park - By Myself Chords & Tabs

 

By Myself Chords & Tabs

Linkin Park Chords & Tabs

Version: 4 Type: Bass Tab 0 ratings
1 star 2 stars 3 stars 4 stars 5 stars
comments

By Myself Bass Tab

   
----------------------------------------------------------------------------
			     By Myself - Linkin Park
----------------------------------------------------------------------------
Tabbed By : Chestaufissen
e-mail: phoenixfarrell@sbcglobal.net
[ Tab from: http://www.guitartabs.cc/tabs/l/linkin_park/by_myself_btab_ver_4.html ]
Tuning:E,A,D,G(correct me if Im wrong, but don't call me an idiot,)
Intro
G|-----|-----------------|
D|-----|-----------------|
A|-----|-----------------|  x2
E|--00-|-4444444-22///12-|
Verse
G|---------------|
D|---------------|
A|---------------|  x9
E|----00-0-0-00--|
Mid Verse
G|-----------------|
D|-----------------|
A|-----------------|
E|-----xxxxxx-22---|
Verse
G|---------------|
D|---------------|
A|---------------| x5
E|----00-0-0-00--|
Prechorus
G|-------------|---------------|-----------------|
D|-------------|---------------|-----------------|
A|-------------|---------------|-----------------|  x4
E|--0000000000-|---4444-22//12-|-444444-22///12--|
Chorus
G|--------|-----------------------------------------------------|
D|--------|-----------------------------------------------------|
A|--------|-----------------------------------------------------|
E|-4444-2~|--5xxx7xxx3~---7xxx5xxx3~---5xxx7xxx3~---7xxx5xxx3---|

Verse 2 x8
Prechorus
Chorus
Bridge
G|-------------|
D|-------------|
A|-------------| x7
E|---0000--00--|
2nd part of bridge
G|-------------------------------------------------------------------------|
D|-------------------------------------------------------------------------|
A|-------------------------------------------------------------------------|
E|--22///12-444444-22///12-444444-22///12--444444-22///12--444444--22///12-|

G|-----------------------------------------------------------|
D|-----------------------------------------------------------|
A|-----------------------------------------------------------|
E|-444444--22///12--444444--22///12--444444-22///12---4444-2~|


Chorus x4

If you think it sucks, make one and shut up. Don't say it and then not make one
no, no, no say it then make one.

| /  slide up
| \  slide down
|///slide down really hard
| h  hammer-on
| p  pull-off
| ~  vibrato
| +  harmonic
| x  Mute note
============================================================================
Comments