Linkin Park - Breaking The Habit Chords & Tabs

 

Breaking The Habit Chords & Tabs

Linkin Park Chords & Tabs

Version: 7 Type: Tab 0 ratings
1 star 2 stars 3 stars 4 stars 5 stars
comments

Breaking The Habit Tab


Song title: Breaking a habit

Artist: Linkin Park

Tabbed By: Jesse C.


Tuning:standard


If you listen to the cd it will be eaiser to learn and play

Intro
 ---------------------------------|
 ---------------------------------|
 --9---4---12---11----------------| X8
 ---------------------------------|
 ---------------------------------|
 ---------------------------------|

verse1
 ---------------------------------|
 ---------------------------------|
 ---4--7----44---4--5----44-------| X17
 ---------------------------------|
 ---------------------------------|
 ---------------------------------|
[ Tab from: http://www.guitartabs.cc/tabs/l/linkin_park/breaking_the_habit_tab_ver_7.html ]
 --------------------------------|
 --------------------------------|
 --44----7---4-------------------| X21
 --------------------------------|
 --------------------------------|
 --------------------------------|

Verse 2
----------------------------------|
 ---------------------------------|
 ---4--7----44---4--5----44-------| X14
 ---------------------------------|
 ---------------------------------|
 ---------------------------------|

 --------------------------------|
 --------------------------------|
 --44----7---4-------------------| X61
 --------------------------------|
 --------------------------------|
 --------------------------------|

Outro
---------------------------------------|
 --------------------------------------|
 --9---4---12---11---------------- X12-|
 --------------------------------------|
 --------------------------------------|
 --------------------------------------|
Comments