Linkin Park - Breaking The Habit Chords & Tabs

 

Breaking The Habit Chords & Tabs

Linkin Park Chords & Tabs

Version: 2 Type: Bass Tab 0 ratings
1 star 2 stars 3 stars 4 stars 5 stars
comments

Breaking The Habit Bass Tab

   
|-------------------------------------------------------------------------------|
|	                Breaking The Habit - Linkin Park		       |
|-------------------------------------------------------------------------------|

Tabbed By : Jacob Bartlett
e-mail: acobjoe@subpatch.com

Tuning: E-A-D-G

Intro (0:09)
G|--------------------------------------|
D|--2-----------------------------------|
A|------------3----------2----------2---|
E|--------------------------------------| x2

Verse 1 (no bass)

Chorus (0:47)
G|--------------------------------------|
D|--2-----------------------------------|
A|------------3----------2----------2---|
E|--------------------------------------| x3

G|--------------------------------------|
D|------------0----0-------------0----0-|
A|--3----3-------------3----3-----------|
E|--------------------------------------|

Verse 2 (1:16)
G|--------------------------------------|
D|--2--------0--------2--------2-----4--|
A|--------------------------------------|
E|--------------------------------------| x3
[ Tab from: http://www.guitartabs.cc/tabs/l/linkin_park/breaking_the_habit_btab_ver_2.html ]
(1:36)
G|-------------------------|------------|
D|-------------------------|------------|
A|-3--------0---------3----|--------2---|
E|-------------------------|------------| x2 (on 2nd time only play the first part)

Chorus (1:45)
G|--------------------------------------|
D|--2-----------------------------------|
A|------------3----------2----------2---|
E|--------------------------------------| x3

G|--------------------------------------|
D|------------0----0-------------0----0-|
A|--3----3-------------3----3-3---------|
E|--------------------------------------|

(2:09)
G|-----------------------0----------2---|
D|--2---------4-------------------------|
A|--------------------------------------|
E|--------------------------------------| x2

Chorus (2:28)
G|--------------------------------------|
D|--2-----------------------------------|
A|------------3----------2----------2---|
E|--------------------------------------| x3

G|-------------------|------------------|
D|------------0----0-|-----------0----0-|
A|--3----3-----------|-3----3-----------|
E|-------------------|------------------| play 1 and a half times and that's it.


| /  slide up
| \  slide down
| h  hammer-on
| p  pull-off
| ~  vibrato
| +  harmonic
| x  Mute note
===============================================================================
Comments