Linkin Park - Breaking The Habit Chords & Tabs

 

Breaking The Habit Chords & Tabs

Linkin Park Chords & Tabs

Version: 1 Type: Bass Tab 0 ratings
1 star 2 stars 3 stars 4 stars 5 stars
comments

Breaking The Habit Bass Tab

   
Artist: Linkin Park
Song: Breaking the Habit
Album: Meteora
Tabbed By: Mathias

Tuning - E,A,D,G

Intro (0:09)
[--------------------------------------|
[--------------------------------------|
[--7---------5----------3---------(3)--|
[--------------------------------------| x2

Verse 1 (no bass)

Chorus (0:47)
[--------------------------------------|
[--------------------------------------|
[-7----------5----------3---------(3)--| x2
[--------------------------------------|

[--------------------------------------|
[-2----------3---------------------2---|
[-----------------------5--------------|
[--------------------------------------|
[ Tab from: http://www.guitartabs.cc/tabs/l/linkin_park/breaking_the_habit_btab.html ]
Verse 2 (1:16)
[------------------------------------------|
[-------------------------------------2----|
[-7---------5----------3----------3------2-| x3(on second time, play 3 instead
[------------------------------------------| of last 2)

[-----------------------------------------|
[-----------------------------------------|
[-2--------5---------7---------5--------3-|
[-----------------------------------------|

Chorus (1:45) (same thing)

Bridge (2:10)
[--------------------------------|
[--------------------------------|
[-3-------5---------7---------8--| x2
[--------------------------------|

Chorus (2:28) (same thing excapet add the ending part) (this is the ending)
[-------------|
[-2-----------|
[-----------3-|
[-------------|

That's it. If any comments contact me at INUTERO9089@aol.com
Comments