Linkin Park - Breakin The Habit Chords & Tabs

 

Breakin The Habit Chords & Tabs

Linkin Park Chords & Tabs

Version: 1 Type: Bass Tab 0 ratings
1 star 2 stars 3 stars 4 stars 5 stars
comments

Breakin The Habit Bass Tab

Song : Breaking The Habit
Band : Linkin Park
Album : Meteora
Tabbed By : Quazo (chumpbass@sbcglobal.net)


This Song Is In Standard Tuning


Intro
G|---------------------------------------|
D|---------------------------------------|
A|-----------3~--------2~----------------|
E|-0~------------------------------------|
B|---------------------------------------|
No Bass in the 1st verse and in the 1st pre chorus

Chorus
G|---------------------------------------|  |-----------------------------------
D|---------------------------------------|  |-----------------------5~----------
A|-----------3~--------2~----------------|  |-3~--------5~--------3--------5~---
E|-0~------------------------------------|  |-----------------------------------
B|---------------------------------------|  |-----------------------------------

2nd Verse (listen to the song for the rhythm)
G|---------------------------------------|
D|---------------------------------------|
A|---------------------------------------|
E|-3--3-3-1--1-1-3--3-3-3---6-6----------|
B|---------------------------------------|
[ Tab from: http://www.guitartabs.cc/tabs/l/linkin_park/breakin_the_habit_btab.html ]
2nd Pre Chorus
G|------------------------------------------------------------------------------
D|------------------------------------------------------------------------------
A|-3~--------0~--------3~------------2---3~--------0~--------3~-----------------
E|------------------------------------------------------------------------------
B|------------------------------------------------------------------------------

Bridge
G|---------------------------------------|
D|---------------------------------------|
A|-------------------------------0~------|
E|-0~--------2~--------3~----------------|
B|---------------------------------------|

Last Chorus
G|---------------------------------------| |------------------| |---------------
D|---------------------------------------| |------------------| |---5~----------
A|-----------3~--------2~----------------| |-3~--------5~-----| |-3--------5~---
E|-0~------------------------------------| |------------------| |---------------
B|---------------------------------------| |------------------| |---------------


Taken from The Bass Tab Archive ~ http://www.basstabarchive.com

Comments