Linkin Park - And One Chords & Tabs

 

And One Chords & Tabs

Linkin Park Chords & Tabs

Version: 2 Type: Bass Tab 0 ratings
1 star 2 stars 3 stars 4 stars 5 stars
comments

And One Bass Tab

   
my first tab on UG

song title: And one
Tuning - Dropped C {C-G-C-F)


Intro: No bass

Verse:
f|-----------------------------------------|
c|-----------------------------------------|
g|---------1-1-1-1-1-----------------------|
c|-0-0-0-0-----------0-0-0-0-1-1-1-1-3\----| the second and 4th times do not play the (3\)

chorus
f|-------------------------------------------------------------|
c|----------------------3~-------------------------------------|
g|-------5~---------1-1----1-1-1-0-----3~------------1~--------| (1x)
c|--0-0-----0-0-0-0----------------3-3----3-3-3-0-1-1---1-1-1--|
[ Tab from: http://www.guitartabs.cc/tabs/l/linkin_park/and_one_btab_ver_2.html ]
now back to the verse do that 3 to four times (hell if i know)

then the chorus twice

end the chorus with this note


f|-------------------------------------------|
c|-------------------------------------------|
g|-------------------------------------------|
c|-0~~~~~~-----------------------------------|

then after the guitar break bust in with

Verse:
f|-------------------------------------------|
c|-------------------------------------------|
g|-------------------------------------------| as many times as needed
c|--0-0-0-0-3-3-3-3-3-3----------------------|

then play the chorus till the end :) simple huh


Brought to you by the BassMasta
http://www.bassmasta.net/l/linkin_park/158030.html
Comments