Linkin Park - Across The Line Chords & Tabs

 

Across The Line Chords & Tabs

Linkin Park Chords & Tabs

Version: 1 Type: Tab 0 ratings
1 star 2 stars 3 stars 4 stars 5 stars
comments

Across The Line Tab

   
Linkin Park
Across The Line (LPU9)
Tabbed by:bmj`

Tuning:C#G#C#F#A#D#

Guitar stars at 1:01 and play it tell you get to the Bridge. For timing I would 
lising to the song



Guitar 1 (Palm Muted)
D#|--------------------------------------------------------------------------|
A#|--------------------------------------------------------------------------|
F#|-12121212121212129999999910101010101010101010101010101010-----------------|
C#|--------------------------------------------------------------------------|
G#|--------------------------------------------------------------------------|
C#|--------------------------------------------------------------------------|



Bridge Guitar 1  (The Voulme is low at first)
D#|--------------------------------------------------------------------------|
A#|--------------------------------------------------------------------------|
F#|--------------------------------------------------------------------------|
C#|-0-8-7-3-8-7-2-5--0-8-7-3-8-7-2-5--0-8-7-3-8-7-2-5--0-8-7-3-8-7-2-5-------|
G#|-0-8-7-3-8-7-2-5--0-8-7-3-8-7-2-5--0-8-7-3-8-7-2-5--0-8-7-3-8-7-2-5-------|
C#|-0-8-7-3-8-7-2-5--0-8-7-3-8-7-2-5--0-8-7-3-8-7-2-5--0-8-7-3-8-7-2-5-------|

Bridge Guitar 2  
D#|--------------------------------------------------------------------------|
A#|--------------------------------------------------------------------------|
F#|-----------------------------------------------------7-7-7-7-7-7-7-7------|
C#|-----------------------------------------------------x-x-x-x-x-x-x-x------|
G#|-----------------------------------------------------5-5-5-5-5-5-5-5------|
C#|--------------------------------------------------------------------------|

Bridge Guitar 1  (Voulme all the way up)
D#|--------------------------------------------------------------------------|
A#|--------------------------------------------------------------------------|
F#|--------------------------------------------------------------------------|
C#|-0-8-7-3-8-7-2-5--0-8-7-3-8-7-2-5--0-8-7-3-8-7-2-5--0-8-7-3-8-7-2-5-------|
G#|-0-8-7-3-8-7-2-5--0-8-7-3-8-7-2-5--0-8-7-3-8-7-2-5--0-8-7-3-8-7-2-5-------|
C#|-0-8-7-3-8-7-2-5--0-8-7-3-8-7-2-5--0-8-7-3-8-7-2-5--0-8-7-3-8-7-2-5-------|


Bridge Guitar 2 
D#|--------------------------------------------------------------------------|
A#|--------------------------------------------------------------------------|
F#|-7-7-7-7-7-7-7-7--7-7-7-7-7-7-7-7--9-9-9-9-9-9-9-9-1010101012121212-------|
C#|-x-x-x-x-x-x-x-x--x-x-x-x-x-x-x-x--x-x-x-x-x-x-x-x--x-x-x-x-x-x-x-x-------|
G#|-5-5-5-5-5-5-5-5--5-5-5-5-5-5-5-5--7-7-7-7-7-7-7-7--8-8-8-810101010-------|
C#|--------------------------------------------------------------------------|


[ Tab from: http://www.guitartabs.cc/tabs/l/linkin_park/across_the_line_tab.html ]
Post Bridge Guitar 2 Play Twice
D#|--------------------------------------------------------------------------|
A#|--------------------------------------------------------------------------|
F#|-7-7-7-7-7-7-7--9-9-9-9-9-9-9-9-1010101010101010-14-14-14-14-14-14-14-14--|
C#|-x-x-x-x-x-x-x--x-x-x-x-x-x-x-x--x-x-x-x-x-x-x-x--x--x--x--x--x--x--x--x--|
G#|-5-5-5-5-5-5-5--7-7-7-7-7-7-7-7--8-8-8-8-8-8-8-8-12-12-12-12-12-12-12-12--|
C#|--------------------------------------------------------------------------|



Outro Guitar 1 Play Five Times
D#|--------------------------------------------------------------------------|
A#|--------------------------------------------------------------------------|
F#|--------------------------------------------------------------------------|
C#|-8--------------10---------------0----------------3-----------------------|
G#|-8--------------10---------------0----------------3-----------------------|
C#|-8--------------10---------------0----------------3-----------------------|

Outro Guitar 2 Play Five Times
D#|--------------------------------------------------------------------------|
A#|--------------------------------------------------------------------------|
F#|-7-7-7-7-7-7-7--9-9-9-9-9-9-9-9-1010101010101010-14-14-14-14-14-14-14-14--|
C#|-x-x-x-x-x-x-x--x-x-x-x-x-x-x-x--x-x-x-x-x-x-x-x--x--x--x--x--x--x--x--x--|
G#|-5-5-5-5-5-5-5--7-7-7-7-7-7-7-7--8-8-8-8-8-8-8-8-12-12-12-12-12-12-12-12--|
C#|--------------------------------------------------------------------------|

Outro Guitar 1
D#|--------------------------------------------------------------------------|
A#|--------------------------------------------------------------------------|
F#|--------------------------------------------------------------------------|
C#|-8--------------10---------------0~~~~------------------------------------|
G#|-8--------------10---------------0~~~~------------------------------------|
C#|-8--------------10---------------0~~~~------------------------------------|

Outro Guitar 2
D#|--------------------------------------------------------------------------|
A#|--------------------------------------------------------------------------|
F#|-7-7-7-7-7-7-7--9-9-9-9-9-9-9-9-10~~~~------------------------------------|
C#|-x-x-x-x-x-x-x--x-x-x-x-x-x-x-x--x~~~~------------------------------------|
G#|-5-5-5-5-5-5-5--7-7-7-7-7-7-7-7--8~~~~------------------------------------|
C#|--------------------------------------------------------------------------|


Thats the whole song pretty easy song 


| /  slide up
| \  slide down
| h  hammer-on
| p  pull-off
| ~  vibrato
| +  harmonic
| x  Mute note
===============================================================================
Comments