Linkin Park - A Place For My Head Chords & Tabs

 

A Place For My Head Chords & Tabs

Linkin Park Chords & Tabs

Version: 7 Type: Tab 0 ratings
1 star 2 stars 3 stars 4 stars 5 stars
comments

A Place For My Head Tab

-----------------------------------------------------------------------------
		    Linkin Park - A Place For My Head
-----------------------------------------------------------------------------
This sounds perfect and its easy

Standard tuning

* - palm mute
/ - slide
~ - hold note/chord
[ Tab from: http://www.guitartabs.cc/tabs/l/linkin_park/a_place_for_my_head_tab_ver_7.html ]
Intro (clean)
e|----------------------------------------|
B|----------------------------------------|
G|----------------------------------------|
D|--------8-8-8-9-8-6---------------------|
A|----6-6-------------9-9-7-7-7-7-7-9-----|
E|----------------------------------------|
      * * * * * * * * * * * * * * * *
e|----------------------------------------|
B|----------------------------------------|
G|----------------------------------------|
D|--------8-8-8-9-8-6---------------------|
A|----6-6-------------9-9-7-7-7-7-7-9-----|
E|----------------------------------------|
      * * * * * * * * * * * * * * * *
e|----------------------------------------|
B|----------------------------------------|
G|----------------------------------------|
D|--------8-8-8-9-8-6---------------------|
A|----6-6-------------9-9-7-7-7-7-7-9-----|
E|----------------------------------------|
      * * * * * * * * * * * * * * * *
e|----------------------------------------|
B|----------------------------------------|
G|----------------------------------------|
D|--------8-8-8-9-8-6---------------------|
A|----6-6-------------9-9-7-7-7-7-7-9-----|
E|----------------------------------------|
      * * * * * * * * * * * *
When the other instruments come in the same riff is played but all of it is open.

The verse is the same riff but it is played open with distortion

Chorus
e|-------------------------------------------|
B|-------------------------------------------|
G|------8--8-x-x-----------------------------|
D|------8--8-x-x-8-9-8-4-2--2--2-2-2-2-2-4---|
A|------6--6-x-x-8-9-8-4-2--2--2-2-2-2-2-4---|
E|--11/-6--6-x-x-6-7-6-2-0--0--0-0-0-0-0-2---|

Transition to 2nd verse (the . means its clean)
e|-------------------------------------|
B|-------------------------------------|
G|-------------------------------------|
D|-------8-8-8-9-8-6-------------------|
A|---6-6-------------9-9-7-7-7-7-7-9---|
E|-------------------------------------|
     . . . . . . . .

The 2nd verse is exactly the same as the 1st but instead of going into the
chorus it goes into this...
e|-----------------|
B|-----------------|    
G|---8~~~~---------|
D|---8~~~~-9~~~~---|    play that twice
A|---6~~~~-9~~~~---|   
E|---6~~~~-7~~~~---|

Then the chorus again

Then Chester sings the "go away" thing and after he says it 5 times u do the
same thing as the chorus but with no slide from the 11th fret

Outro
e|------------------------------------|
B|------------------------------------|
G|---8-8---8-8-8---8-8-8---8-8-8-11---|
D|---8-8---8-8-8---8-8-8---8-8-8-11---|
A|---6-6---6-6-6---6-6-6---6-6-6--9---|
E|---6-6---6-6-6---6-6-6---6-6-6--9---|
Comments