Linkin Park - A Place For My Head Chords & Tabs

 

A Place For My Head Chords & Tabs

Linkin Park Chords & Tabs

Version: 4 Type: Tab 0 ratings
1 star 2 stars 3 stars 4 stars 5 stars
comments

A Place For My Head Tab

tabbed by Ross Beaudin (deftones_ross@hotmail.com)

Tuning-Dd-Ad-Dd-Gd-Bd-Ed


-----------------------------------------------------
-----------------------------------------------------
-----------------------------------------------------
------4-4-5-4-2--------------------------------------
--2-2-----------5-5-3-3-3-3-5------------------------
-----------------------------------------------------


(with distortion)
-----------------------------------------------------
-----------------------------------------------------
-----------------------------------------------------
------4-4-5-4-2--------------------------------------
--2-2-----------5-3-3-3-5----------------------------
-----------------------------------------------------

[ Tab from: http://www.guitartabs.cc/tabs/l/linkin_park/a_place_for_my_head_tab_ver_4.html ]
(chorus)
-----------------------------------------------------
-----------------------------------------------------
-----------------------------------------------------
--5-5-11-12-11-7-7-5-5-5-7---------------------------
--2-2--9-10--9-5-5-3-3-3-5---------------------------
--2-2--9-10--9-5-5-3-3-3-5---------------------------


(this is a part that goes in the verse)
-----------------------------------------------------
-----------------------------------------------------
--6-----2-----6-----2--------------------------------
--6-----0-----6-----0--------------------------------
--4-----0-----4-----0--------------------------------
--4-----0-----4-----0--------------------------------



-----------------------------------------------------
-----------------------------------------------------
-----------------------------------------------------
--4-4---4-4-4-4---4-4-4---4-4-4-4--7-----------------
--2-2---2-2-2-2---2-2-2---2-2-2-2--5-----------------
--2-2---2-2-2-2---2-2-2---2-2-2-2--5-----------------
(palm muted a couple times)
Comments