Linkin Park - A Place For My Head Chords & Tabs

 

A Place For My Head Chords & Tabs

Linkin Park Chords & Tabs

Version: 12 Type: Tab 0 ratings
1 star 2 stars 3 stars 4 stars 5 stars
comments

A Place For My Head Tab

   
-------------------------------------
A place for my head - Linkin Park
-------------------------------------

Tabbed by: Atea [Taste_of_ink_x_]
Email:The_virus_0f_life@hotmail.com

Tuning:Standard- EBGDAE

Intro-
E|------------------------------------|
B|------------------------------------|
G|------------------------------------| PLAY 8 TIMES
D|-----9-9-9-10-9-7-------------------|
A|-7-7--------------10-10-8--8-8-8-10-|
E|------------------------------------|

I watch how the moon...
E|--------------------------------|
B|--------------------------------|
G|----4-4-4-5-4-2-----------------|  PLAY 6 TIMES
D|-2-2------------5-5-3-3-3-3-3-5-|
A|--------------------------------|
E|--------------------------------|

I wanna be in another place...[chorus]
E|--------------------------|
B|--------------------------|
G|--------------------------| PLAY 4 TIMES
D|-2-2-9-10-9-7-5-5-3-3-3-5-|
A|-2-2-9-10-9-7-5-5-3-3-3-5-|
E|-2-2-9-10-9-7-5-5-3-3-3-5-|
[ Tab from: http://www.guitartabs.cc/tabs/l/linkin_park/a_place_for_my_head_tab_ver_12.html ]
Maybe someday I'll be..
E|----------------------------------|
B|----------------------------------|
G|------------------5-5-3-3-3-3-3-5-|
D|-----9-9-9-10-9-7-----------------| Play once
A|-7-7------------------------------|
E|----------------------------------|

And run away all the people...
E|--------------------------------|
B|--------------------------------|
G|----4-4-4-5-4-2-----------------|  PLAY 3 TIMES
D|-2-2------------5-5-3-3-3-3-3-5-|
A|--------------------------------|
E|--------------------------------|

I'm so sick of the tension...
E|---------|
B|---------|
G|---------| PLAY ONCE
D|-2-5-2-5-|
A|-2-3-2-3-|
E|-2-3-2-3-|

I wanna be in another place...[chorus]
E|--------------------------|
B|--------------------------|
G|--------------------------| PLAY 4 TIMES
D|-2-2-9-10-9-7-5-5-3-3-3-5-|
A|-2-2-9-10-9-7-5-5-3-3-3-5-|
E|-2-2-9-10-9-7-5-5-3-3-3-5-|

You try to take the best of me- SILENT

GO AWAY, YOU TRY TO TAKE THE BEST OF ME...
E|--------------------------|
B|--------------------------|
G|--------------------------| PLAY 7 TIMES
D|-2-2-9-10-9-7-5-5-3-3-3-5-|
A|-2-2-9-10-9-7-5-5-3-3-3-5-|
E|-2-2-9-10-9-7-5-5-3-3-3-5-|

E|-----------------------------|
B|-----------------------------|
G|-----------------------------|
D|-----------------------------| Keep playing until ending
A|-2-2-----2-2-2-2-2-----2---5-|
E|-2-2-2-2-2-2-2-2-2-2-2-2-0-5-|
Comments