Linkin Park - A Place For My Head Chords & Tabs

 

A Place For My Head Chords & Tabs

Linkin Park Chords & Tabs

Version: 2 Type: Bass Tab 0 ratings
1 star 2 stars 3 stars 4 stars 5 stars
comments

A Place For My Head Bass Tab

Artist: Linkin Park 
Title: A place for my head 
Album: Hybrid theory 
Tabbed by:Paco (copo4369@aol.com) 

There are some variations that the bassists uses throughout the song but this 
is the main stuff...Keep in mind htis is my first tab. Linkin Park is like my 
favorite band and no one seems to want to tab them so i took the step. 

Tuniung: (C#, A, D, G)--- u r supposed to tune all trings down but i find it 
easier to play this way.. 

Guitar plays for a little then: 

|-----------| 
|-----------| 
|-----------|         4X 
|----2--2---| 

Verse 1: 

|-------------------------------------|-----------------------------------| 
|-------------------------------------|-----------------------------------| repeat 
|-------------------------------------|-----------------------------------| as 
|--2----2-2--2-2-2------5-5-5--7-7-7--|--2----2-2--2-2-2----5-5-5---3-3-3-| necessary 


Chorus: 
[ Tab from: http://www.guitartabs.cc/tabs/l/linkin_park/a_place_for_my_head_btab_ver_2.html ]
|-------------------------------------| 
|---8-9-8-6---------------------------|repeat as necesary 
|-6----------9--9--7-7-7--9--6--------| also use this at the "You 
|-------------------------------------|     Try to take the Best of me part" 

Verse 2: 

|-------------------------------|----------------------------------------|---------------------------------| 
|-------------------------------|----------------------------------------|---------------------------------| 
|-------------------------------|----------------------------------------|---------------------------------| 
|---X--X-X--X-X-X--5-5-5-7-7----|--2--2-2---2-2-2---5-5-5---3-3-3--------|--2--2-2---2-2-2---5-5-5--7-7-7--| 

|---------------------------------|--------|--------|------|------------------------------| 
|---------------------------------|--------|--------|------|------------------------------| 
|---------------------------------|--------|---2----|------|-2-/-14--14--14--14--14--14---| 
|--2--2-2--2-2-2---5-5-5---3-3-3--|----2---|--------|--2---|------------------------------| 

Then Chorus.. Then: 

|----------------------------------| 
|----------------------------------| 
|----------------------------------| 
|----2-2---2-2-2---2-2-2--2-2--5---| 

Thats prettty much the song...have fun 
Comments