Linkin Park - A06 Chords & Tabs

 

A06 Chords & Tabs

Linkin Park Chords & Tabs

Version: 2 Type: Bass Tab 0 ratings
1 star 2 stars 3 stars 4 stars 5 stars
comments

A06 Bass Tab

   
Tuning: C#,A,D,G.

Intro: (0:12)
G :----------------------------------|
D :----------------------------------|
A :----------------------------------|x3
C#:-8-7-0-0--1-0-0-0---0-1-0-1-0-0-0-|

G :-------------------|
D :-------------------|
A :-------------------|
C#:-8-7-0-0--1-0-0-0--|

Verse?:
G :------------------------------|
D :------------------------------|
A :------------------------------|
C#:-8-7-0--8-7-0-0--0-8-7-8-7-0--|
[ Tab from: http://www.guitartabs.cc/tabs/l/linkin_park/a06_btab_ver_2.html ]
Chorus:
G :---------------------------|
D :---------------------------|
A :---------------------------|
C#:-8-7-0--8-8-3-3--3-3--8-7--|

G :----------------------------|
D :----------------------------|
A :----------------------------|
C#:-2-3-3-2-3-3-2-5--5-5--7-8--|

Bridge:
G :----------------------------|
D :----------------------------|
A :----------------------------|
C#:-5s7s5/0-1-0--0--0-1-0-1-0--|

s = slide

You have to figure out when to play the different parts!
Hope it sounds ok. :)
Comments