Link Wray - Rumble Chords & Tabs

 

Rumble Chords & Tabs

Link Wray Chords & Tabs

Version: 3 Type: Tab 0 ratings
1 star 2 stars 3 stars 4 stars 5 stars
comments

Rumble Tab

   
"RUMBLE" - Link Wray
Tabbed: Ben Gordon
Effects Used: Slight Distortion, Reverb

++++++++++++++++++++++++++++++++
+++++++++  CHORDS  +++++++++++++
++++++++++++++++++++++++++++++++

Dsus2   E    A   B7
E-0-----0----0----2--|
B-3-----0----2----0--|
G-2-----1----2----2--|
D-0-----2----2----1--|
A-------2----0----2--|
E-------0------------|


++++++++++++++++++++++++++++++++
++++++++++  Tabs  ++++++++++++++
++++++++++++++++++++++++++++++++
Notes: Slightly rake pick the notes going through the chords
to hear individual notes. That's what Link does.


    Dsus2   E
E----0--0---0-|
B----3--3---0-|
G----2--2---1-| Play
D----0--0---2-| Twice
A-----------2-|
E-----------0-|

[ Tab from: http://www.guitartabs.cc/tabs/l/link_wray/rumble_tab_ver_3.html ]
    Dsus2   A
E----0--0---0-|
B----3--3---2-|
G----2--2---2-| Play
D----0--0---2-| Once
A-----------0-|
E-------------|


    Dsus2   E
E----0--0---0-|
B----3--3---0-|
G----2--2---1-| Play
D----0--0---2-| Once
A-----------2-|
E-----------0-|


    Dsus2   B7 Arpeggio the chord!
E----0--0------2--|
B----3--3------0--|
G----2--2-----2---| Play
D----0--0----1----| Once
A-----------2-----|
E-----------------|


 Melody Riff
E-3-0--------------------------|
E-----3-0----------------------|
E---------2-0------------------|
E-------------2-0--------------|
E-----------------2-0----------|
E---------------------3b----0--|
                      hold


Played after three or four times:

E--/12-12-12-12-12-12-------|
E--/13-13-13-13-13-13-------|
E--/12-12-12-12-12-12-------|
E---------------------------|
E---------------------------|
E---------------------------|
Comments