Link 80 - Turn It Around Chords & Tabs

 

Turn It Around Chords & Tabs

Link 80 Chords & Tabs

Version: 2 Type: Bass Tab 0 ratings
1 star 2 stars 3 stars 4 stars 5 stars
comments

Turn It Around Bass Tab

SONG: TURN IT AROUND
BAND: LINK 80
TABBED BY: BEN MEYER benm@oakweb.com


VERSE:

G:-----------3-5------
D:----------------5-3-
A:-----3-5------------    (PLAY VERY FAST)
E:-3-5----------------


CHORUS:

G:-----3-5-----3-5-----------------
D:---------------------------------
A:-7-5-----5-3-----5-5-5-5-3-3-3-3-
E:---------------------------------


LITTLE BASS SOLO THINGY:
[ Tab from: http://www.guitartabs.cc/tabs/l/link_80/turn_it_around_btab_ver_2.html ]
G:-----------5-5-5-5-5----------------
D:-5-5-5-5-5-----------5-5-5-5-5------
A:--------------------------------5-3-
E:------------------------------------


ORGAN SOLO:

G:-------------2-3-5-5-5------------------------------------5-
D:---------2-3-----------3-5--------------------------2-3-5---
A:-3-3-3-5-------------------5-5-3-3-2------------3-5---------
E:--------------------------------------3-3-3-5-5-------------
Comments