Link 80 - Kind Of Chords & Tabs

 

Kind Of Chords & Tabs

Link 80 Chords & Tabs

Version: 1 Type: Bass Tab 0 ratings
1 star 2 stars 3 stars 4 stars 5 stars
comments

Kind Of Bass Tab

Song: KINd OF...
Band:      liNK 80
Album:  sKA sUCKS COMpILaTION  (and Killing Katie)
tabbed by:jUSTINsLATER   punkdork@hotmail.com


IntRo(PALm MUtE)
G:---------------------------------------------------------------
D:---------------------------------------------------------------
A:-------66-6--99-9--66-6--77-7--------666-----------------
E:--77-7-------------------------99-9-------777-------------
yUP. I noRmaLLY don'T plaY with A picK buT THis SounDS bETTER HerE

Pre-VERsE(BefoRE the LyriCS comE in, JackASS)
G:---------------------------------------------------------------
D:---------------------------------6-7-9-9-7-6------------------
A:-----6-9-7-6---6-9-7-6---6-7-8-9-------------9-7-6------
E:--7----------7------------------------------------------
I'M noT suRE if THe lASt ParT is RiGht, BuT It iS some KInd of WalK
[ Tab from: http://www.guitartabs.cc/tabs/l/link_80/kind_of_btab.html ]
VeRSE
G:--------------------------------------------------------
D:--------------------------6-9-7-6---6-9-7-6-----------------
A:----6-9-7-6----6-9-7-6--7---------7-----------6-9-7-6---6-9-7-6
E:--7----------7-------------------------------7---------7------
TheN do thiS
G:---------------------------------------------------------------
D:---------------------------------------------------------------
A:---6666--7777--8888-9999------------------------------------
E:---------------------------------------------------------------

TheN dO VERSe AGaiN And TheN do THis
G:---9999--8888--7777--6666----------------------------------
D:--------------------------------------------------------------
A:----------------------------------------------------------
E:---------------------------------------------------------------

cHoruS
G:---------------------------------------------------------------
D:--------------------------66--77-99------------------------
A:-------9>---7>------9>--7----------------9>--7>----9>---7>--
E:---7>-----------7>--------------------7>---------7>-----------

The BRiDGE thING ToWARdS theEND (palM MUTed AgaiN)
G:---------------------------------------------------------------
D:-------------9-------9-------------------------------------------
A:---------------------------------------------------------------
E:--------7>------7>-------------------------------------------------
JusT kEEP HittINg The B and THE oCTivE thusLY.


IT'S a HEll oF aLOT EASieR thaN IT LookS.
http://www.angelfire.com/nj/kickedintheballs
Comments