Lingle - Bored Chords & Tabs

 

Bored Chords & Tabs

Lingle Chords & Tabs

Version: 2 Type: Tab 0 ratings
1 star 2 stars 3 stars 4 stars 5 stars
comments

Bored Tab

                 pm-parm muted
                 v-vibrato
                 both guitars with distortion                       (chrods used D-G-E-A)

                lingle rock, so enjoy i havn't done the chorus yet!!!hello

	Intro:

     E---------------------33333333----00000000-----3-----5------------------------|
     A-------55555555------55555555----22222222------5-----7-----------------------|
     D-------77777777------55555555----22222222------5-----7-----------------------|
     G-------77777777--------------------------------------------------------------|
     b-----------------------------------------------------------------------------| chrods used D-G-E-A
     e ----------------------------------------------------------------------------|


	 1st guitar
      G------------------7--7--7---------------------|  x4
      b------7--7--7--8-----------8--7--10--8--7--7--| over the top of the 2nd guitar
      e----------------------------------------------|

                2nd guitar

     E---------------------33333333----00000000-----------55555555--------------------|
     A-------55555555------55555555----22222222-----------77777777--------------------|
     D-------77777777------55555555----22222222-----------77777777--------------------|
     G-------77777777-----------------------------------------------------------------|
     b--------------------------------------------------------------------------------|        x4
     e -------------------------------------------------------------------------------|

                  verse:
                  2nd guitar comes in second time round
[ Tab from: http://www.guitartabs.cc/tabs/l/lingle/bored_tab_ver_2.html ]
                                  just yesterday i felt like this...
     E---------------------33333333----00000000-----------55555555--------------------|
     A-------55555555------55555555----22222222-----------77777777--------------------|
     D-------77777777------55555555----22222222-----------77777777--------------------|
     G-------77777777-----------------------------------------------------------------|
     b--------------------------------------------------------------------------------|        x2
     e -------------------------------------------------------------------------------|

                                                                                     you make me...
     E---------------------33333333---------5555555555555555--------------------|
     A-------55555555------55555555---------7777777777777777--------------------|
     D-------77777777------55555555---------7777777777777777--------------------|
     G-------77777777-----------------------------------------------------------|
     b--------------------------------------------------------------------------|        x2
     e -------------------------------------------------------------------------|

                                 you tell me eveynight shitty tales from your shit life
      E---------------------33333333----00000000-------55555555----------------------------------------------|
      A-------55555555------55555555----22222222-------77777777----------------------------------------------|
      D-------77777777------55555555----22222222-------77777777                            same for verse 2--|
      G-------77777777---------------------------------------------------------------------------------------|x2
Comments