Linea 77 - Moka Chords & Tabs

 

Moka Chords & Tabs

Linea 77 Chords & Tabs

Version: 2 Type: Tab 0 ratings
1 star 2 stars 3 stars 4 stars 5 stars
comments

Moka Tab

   
Title: Moka
Artist: Linea 77
Album: Ketchup Suicide

Instrument: 6 String Guitar
Tabbed by: Claudio Pellegrino - ITALY (pellegrinho@hotmail.com)
Tuning: Standard (E A D G B E)


Intro: no distortion

E|-----------------------------------------------||
B|-----------------------------------------------||
G|-7x-7x-7-7--10x10x1010---6x-6x-6-6---9x-9x-9-9-||
D|-7x-7x-7-7--10x10x1010---6x-6x-6-6---9x-9x-9-9-||
A|-5x-5x-5-5---8x-8x-8-8---4x-4x-4-4---7x-7x-7-7-||
E|-----------------------------------------------|| x2


Verse A: no distortion

E|-----------------------------------------------||
B|-----------------------------------------------||
G|-7x-7x-7-7--10x10x1010---6x-6x-6-6---9x-9x-9-9-||
D|-7x-7x-7-7--10x10x1010---6x-6x-6-6---9x-9x-9-9-||
A|-5x-5x-5-5---8x-8x-8-8---4x-4x-4-4---7x-7x-7-7-||
E|-----------------------------------------------|| x4


Chorus A: high distortion

E|----------------------||
B|----------------------||
G|-7---7-4-4---7-4-4-4--||
D|-7---7-4-4---7-4-4-4--||
A|-5---5-2-2---5-2-2-2--||
E|-5---5-2-2---5-2-2-2--|| x2


Verse B: no distortion
[ Tab from: http://www.guitartabs.cc/tabs/l/linea_77/moka_tab_ver_2.html ]
E|-----------------------------------------------||
B|-----------------------------------------------||
G|-7x-7x-7-7--10x10x1010---6x-6x-6-6---9x-9x-9-9-||
D|-7x-7x-7-7--10x10x1010---6x-6x-6-6---9x-9x-9-9-||
A|-5x-5x-5-5---8x-8x-8-8---4x-4x-4-4---7x-7x-7-7-||
E|-----------------------------------------------|| x2+4

"I-did-it-my-way" bit: low distortion

E|-----------||
B|-----------||
G|-7-7-7-7vv-||
D|-7-7-7-7vv-||
A|-5-5-5-5vv-||
E|-5-5-5-5vv-||


Chorus B: high distortion

E|----------------------||
B|----------------------||
G|-7---7-4-4---7-4-4-4--||
D|-7---7-4-4---7-4-4-4--||
A|-5---5-2-2---5-2-2-2--||
E|-5---5-2-2---5-2-2-2--|| x3

then:  E|-------------------------------------------------||
       B|-------------------------------------------------||
       G|-7---7-4-4---7-7-7-7-7--7-7-121212--121212121212-||
       D|-7---7-4-4---7-7-7-7-7--7-7-121212--121212121212-||
       A|-5---5-2-2---5-5-5-5-5--5-5-101010--101010101010-||
       E|-5---5-2-2---5-5-5-5-5--5-5----------------------|| x1


Bridge:  low distortion

E|-------x-||
B|-4bbbr-x-||
G|-0-----x-||
D|-------x-||
A|-------x-||
E|-------x-|| x8


Chorus C: as Chorus B

Verse C: as Verse A

Chorus D: as Chorus B



This is pretty all for this easy song by Linea 77.
For comments, questions or other stuff please feel free to write at pellegrinho@hotmail.com.

-Cheers-
Comments