Linea 77 - Fantasma Chords & Tabs

 

Fantasma Chords & Tabs

Linea 77 Chords & Tabs

Version: 1 Type: Tab 0 ratings
1 star 2 stars 3 stars 4 stars 5 stars
comments

Fantasma Tab

LINEA 77 - FANTASMA
(NUMB)x = palm muted

***Intro (0:11)
|-----------------------------------------||
|-----------------------------------------||
|-----------------------------------------||
|--5-5-x--5-5-x--5-5/9-9-x--9-9-x--9-9\5--||
|--5-5-x--5-5-x--5-5/9-9-x--9-9-x--9-9\5--||
|--3-3-x--3-3-x--3-3/7-7-x--7-7-x--7-7\3--||

***Interlude I (0:20)
|--------------------------||
|--------------------------||
|--------------------------||
|-----------------5-5-5-5--||
|--7h9--5h7--3h5--5-5-5-5--||
|-----------------3-3-3-3--||

***Repeat Intro and Interlude I

***Interlude II (0:32)
|---------------------------------------------||
|---------------------------------------------||
|---------------------------------------------||
|---------------------------------5-5-5-4-2---||
|------5-3-2-3-3-3-2-0------7-5-4-------------||
|--3-3------------------5-5-------------------||

***Repeat Intro and Interlude I
***Repeat Interlude II
[ Tab from: http://www.guitartabs.cc/tabs/l/linea_77/fantasma_tab.html ]
***Chorus (1:26)
|------------------------------------------||
|------------------------------------------||
|------------------------------------------||
|--5-5-x-5-5-5-x-5-5-5/9-9-x-9-9-9-x-9-9---||
|--5-5-x-5-5-5-x-5-5-5/9-9-x-9-9-9-x-9-9---||
|--3-3-x-3-3-3-x-3-3-3/7-7-x-7-7-7-x-7-7---||

***Repeat Intro and Interlude I

***Interlude III (2:20)
|----------------------------------------||
|----------------------------------------||
|----------------------------------------||
|----------------------------------------||
|---5-5-5-5-5-5-5-5---9-9-9-9-9-9-9-9----||
|---3-3-3-3-3-3-3-3---7-7-7-7-7-7-7-7----||
x x x x x x x x x x x x x x x x

***Repeat Intro and Chorus

***End on
|-----------------------------------||
|-----------------------------------||
|-----------------------------------||
|-----------------------------------||
|--5-5-5-5-5-5-5-5-5-5-5-5-5-5-5-5--||
|--3-3-3-3-3-3-3-3-3-3-3-3-3-3-3-3--||
x x x x x x x x x x x x x x x x
Comments