Lindsay Lohan - Ultimate Chords & Tabs

 

Ultimate Chords & Tabs

Lindsay Lohan Chords & Tabs

Version: 4 Type: Tab 0 ratings
1 star 2 stars 3 stars 4 stars 5 stars
comments

Ultimate Tab

   
-------------------------------------------------------------------------------
	ULTIMATE (guitar solo) - Lindsay Lohan (Freaky Friday soundtrack)
-------------------------------------------------------------------------------

Tabbed by: Vikki Fong
Email: downright_cruel@hotmail.com

Tuning: standard tuning

I just tabbed this guitar solo from the song-tell me what you think 
(listen to song for timing)

e|--------15----------15----------15--15--15/17--15--13--12--13--12--13--12-----|
B|----------------13----------13---------------------------------------------13-|
G|-11/12------12----------12----------------------------------------------------|
D|------------------------------------------------------------------------------|
A|------------------------------------------------------------------------------|
E|------------------------------------------------------------------------------|
[ Tab from: http://www.guitartabs.cc/tabs/l/lindsay_lohan/ultimate_tab_ver_4.html ]
e|-20--20/22--20--15--15------15--15/17--17\20--17--15-----------------------|
B|------------------------17-------------------------------------------------|
G|---------------------------------------------------------------------------|
D|---------------------------------------------------------------------------|
A|---------------------------------------------------------------------------|
E|---------------------------------------------------------------------------|

the next 2 sections, the chords are played with really fast 'strumming'

e|-20--19--17--15------------------------------------------------------------|
B|-----------------13--15--13--15/17--15--13-15/17---------------------------|
G|---------------------------------------------------------------------------|
D|---------------------------------------------------------------------------|
A|---------------------------------------------------------------------------|
E|---------------------------------------------------------------------------|

e|---------------------------------------------------------------------------|
B|---------12--13--15--------------------------------------------------------|
G|-14--14-----------------and the next few are some notes in really----------|
D|----------------------- high frets that my guitar doesn't have :P----------|
A|---------------------------------------------------------------------------|
E|---------------------------------------------------------------------------|



| /  slide up
| \  slide down
| h  hammer-on
| p  pull-off
| ~  vibrato
| +  harmonic
| x  Mute note

===============================================================================
Comments