Lincoln Brewster - You Are Good Chords & Tabs

 

Lincoln Brewster Chords & Tabs

Version: 2 Type: Tab 0 ratings
1 star 2 stars 3 stars 4 stars 5 stars
comments

You Are Good Tab

   
-------------------------------------------------------------------------------
			     You are Good - Lincoln Brewster
-------------------------------------------------------------------------------
Tabbed by: Whiteboy_az
Email: whiteboy15420@yahoo.com


Tuning: Standard

Intro
(this is how i play it at my church, its an arpeggio & as close as i could get it)
 played twice

e|---------------------------------------------------------------------------|
B|---8--8----8--8--11--11--10--10--------------------------------------------|
G|--9----9----7--7--10--10--10--10-------------------------------------------|
D|10------10---9--9--12--12--10--10------------------------------------------|
A|---------------------------------------------------------------------------|
E|---------------------------------------------------------------------------|

Interlude: played twice
e|12--12--13--12--10-------12--12--13--12------------------------------------|
B|--13------------11-[x7]----13------------13-[x7]---------------------------|
G|----------------10-----------------------10--------------------------------|
D|---------------------------------------------------------------------------|
A|---------------------------------------------------------------------------|
E|---------------------------------------------------------------------------|

(the verse is kinda hard to distinguish, but i think you just strum through the intro
one octave down)

Pre chorus
e|5--5--7--7--8--8--10--10---------------------------------------------------|
B|-6--6--8--8--9--9--11--11--------------------------------------------------|
G|--5--5--------8--8--10--10-------------------------------------------------|
D|---------------------------------------------------------------------------|
A|---------------------------------------------------------------------------|
E|---------------------------------------------------------------------------|
[ Tab from: http://www.guitartabs.cc/tabs/l/lincoln_brewster/you_are_good_tab_ver_2.html ]
Chorus (I gallop through the chords instead of the recording, its easier and sounds just 
good, just listen to it to get the order down.)
e|---------------------------------------------------------------------------|
B|---------------------------------------------------------------------------|
G|-5--------10---------------------------------------------------------------|
D|-5--5--8--10--6------------------------------------------------------------|
A|-3--5--8--8---6------------------------------------------------------------|
E|----3--6------4------------------------------------------------------------|
 C5  G5 Bb5 F5 G#5

play that twice and then this (the fills are kinda tricky but they are all within the c 
scale.)
                              p                        fill here
e|---------------------------------------------------------------------------|
B|-----------------11-11--10--8----------------------------------------------|
G|-5-5--8-8--10----11-11--10--8--------5-5--3-3--2---------------------------|
D|-5-5--8-8--10----8--8---8---8--------5-5--3-3--2---------------------------|
A|-3-3--6-6--8-------------------------3-3--1-1--0---------------------------|
E|---------------------------------------------------------------------------|

play that a few times and then

Solo: b   b   b   b  b~            b    b        p  b~   b           h
e|---12--12--12--12--12--------10-12---10---------------12-12-10-10-12--13-15|
B|-----------------------10-12------------12--10-8---------------------------|
G|--------------------------------------------------8------------------------|
D|---------------------------------------------------------------------------|
A|---------------------------------------------------------------------------|
E|---------------------------------------------------------------------------|
       b  ~          ~~~     b
e|17--19-17-17-15-13-12----17------------------------------------------------|
B|---------------------------------------------------------------------------|
G|---------------------------------------------------------------------------|
D|---------------------------------------------------------------------------|
A|---------------------------------------------------------------------------|
E|---------------------------------------------------------------------------|

thats the best i could do, listen to the song to get a better idea on how the tempo
any questions me email is at the top.

| /  slide up
| \  slide down
| h  hammer-on
| p  pull-off
| ~  vibrato
| +  harmonic
| x  Mute note
| b  bend
===============================================================================
Comments