Limuel - Foolish Heart Original Version Chords & Tabs

 

Foolish Heart Original Version Chords & Tabs

Limuel Chords & Tabs

Version: 1 Type: Tab 0 ratings
1 star 2 stars 3 stars 4 stars 5 stars
comments

Foolish Heart Original Version Tab

   

foolish_heart(original).tab

      
      

                        Foolish Heart ( by Nina )

tabbed by: ( limkulit ) leemo192000@yahoo.com
sana magustuhan niyo!!!
legend:    ^ = tap    b = bend     / = slide up      h = hammer on 
           ()= natural harmonics   \ = slide down    p = pull off

intro:

---------2------------2------------2--------------------------
-----4---4--------2---2--------0---0---------2----------2-----
-----4------------3------------1-------------3-----4----------
--------------------------------------------------------------
--------------------------------------------------------------
-----0------------0------------0-------------0----------------
             ^            ^            ^

---------2------------2------------2--------------------------
-----4---4--------2---2--------0---0---------2------0h2p0-----
-----4------------3------------1-------------3----------------
--------------------------------------------------------------
--------------------------------------------------------------
-----0------------0------------0-------------0----------------
             ^            ^            ^

---------2------------2------------2--------------------------
-----4---4--------2---2--------0---0---------2----------2-----
-----4------------3------------1-------------3-----4----------
--------------------------------------------------------------
--------------------------------------------------------------
-----0------------0------------0-------------0----------------
             ^            ^            ^

---------2------------2--------0------------------------------
-----4---4--------2---2--------0------------------------(7)---
-----4------------3------------1------------------------------
-------------------------------1h2----------------------------
-------------------------------2----------------(7)-----------
-----0------------0------------0------------(7)---------------
             ^            ^

verse:

---------2------------2------------2--------------------------
-----4---4--------2---2--------0---0---------2----------2-----
-----4------------3------------1-------------3-----4----------
--------------------------------------------------------------
--------------------------------------------------------------
-----0------------0------------0-------------0----------------
             ^            ^            ^
  i need    a    love  that  grows                 i   don't 


---------2------------2------------2---------------------2----
-----4---4--------2---2--------0---0---------2--0-2/4---------
-----4------------3------------1-------------3----------------
--------------------------------------------------------------
--------------------------------------------------------------
-----0------------0------------0-------------0----------------
             ^            ^            ^
    want it   unless  i       know                with  each 


-----4----2------------------------------------------------------
-----4----4--------------4---------------------0---------4-4-----
-----4----4--------------6----4----------------------4---4-4-----
----------------4\-------6----4---------6----4-------4-----------
-----2----2--------------------------5h6-------------------------
---------------------/4-----0-4----44------4------4--3-------3---
       ^ 
   Passin hour   someone,   somehow        will  be there , 


--------------0-------------2------------2------------2-------------------
--5-----------4h5-4-2---4---4--------2---2--------0---0--------2--------2-
--4---------4-4-----4---4------------3------------1------------3----4-----
--4-----------------------------------------------------------------------
--------------------------------------------------------------------------
--2---------------------0------------0------------0------------0----------
                                  ^            ^            ^
   ready to share    I  need    a   love   that's strong          i'm so 


---------2------------2------------2---------------------2----
-----4---4--------2---2--------0---0---------2--0-2/4---------
-----4------------3------------1-------------3----------------
--------------------------------------------------------------
--------------------------------------------------------------
-----0------------0------------0-------------0----------------
             ^            ^            ^
    tired  of   being       alone              but will  my 


--4----2-------------------------------------------------------------2--2-
--4----4----7-6\4---------4--------------------4--------4--4---4--5--5--5-
--4----4------6\4-4-------4---4----4-----------4--------4--4---4----------
------------------4-----------4----4--------4------------------4----------
--2----2-------------------------------------------6p5p4--4---------------
----------------------4-------4--4----4--4-------4------------------------
     ^
lonely Heart         play the part   ofdfool  again,     bEfore i  begin


chorus:

------------------------2--------------2-----2--------------
--------------0---------2--------------2-----4--------------
-------4---------3---------------------------4--------4\----
---4----------------4---------------------------------4\----
---------------------------------2h3---2-----2----2---------
-----------0-------------------0----------------------------

  foolish heart,       heaR  me       call...ing stop be.. 


----------------2-------------7-7--------------------
------0---------2-------------7-7---0----------------
---------3--------------------------8----------------
------------4----------------------------------------
-----------------------------------------------------
---0--------------------0-7h9-7---0-7---7--9-7-6-4---

  fore        you  start     fal..ling  foolish 


----------------2------------2-2---/4-2-------------------------------
------0---------2------------4-4---/4-2-2/4-4----------4-----------4--
---------3----------------------------------4----------4-----------4--
------------4---------------------------------------4-----------------
-----------------------2h4---2---2------------------------2-3---4-----
---0-----------------0---------------------------4-------4------------

 heart,       heed My      war   ning  u'vebeen wrong  before   don't 


----------------0----------------
----------------0----------------
------------4--------------------
-------4-------------------------
---------------------------------
--2------------------------------

  be wrong  a...nymore


2nd verse:

---------2------------2------------2--------------------------
-----4---4--------2---2--------0---0---------2----------2-----
-----4------------3------------1-------------3-----4----------
--------------------------------------------------------------
--------------------------------------------------------------
-----0------------0------------0-------------0----------------
             ^            ^            ^
 i'm feelin that feelin     again                i've been 


---------2------------2------------2---------------------2----
-----4---4--------2---2--------0---0---------2--0-2/4---------
-----4------------3------------1-------------3----------------
--------------------------------------------------------------
--------------------------------------------------------------
-----0------------0------------0-------------0----------------
             ^            ^            ^
    playin  a   game I can't win               love's knockin 


-----4--4---2------2--/9-------------------
-----4--4---4--4h5-4--/9------4------------
-----4--4---4-----------------4---4-----4--
----------------------------------4-----4--
-----2------2------------------------------
---------------------------4------4--4-----
        
   on the door   Of my heart once more    


---------------------------------------0----
------------0-------------0------------0----
------------4-------------4----------4------
---------4-------------5-----------4--------
--------------------------------------------
---4--4----------4--3-----------2-----------


 think i'll let him in      before i begin


[ Tab from: http://www.guitartabs.cc/tabs/l/limuel/foolish_heart_original_version_tab.html ]
--------2------------2------------2--------------------
----4---4--------2---2--------0---0--------2--------2--
----4------------3------------1------------3----4------
-------------------------------------------------------
-------------------------------------------------------
----0------------0------------0------------0-----------
           ^            ^            ^
 i need    a   love that's Strong               i'm so


---------2------------2------------2---------------------2----
-----4---4--------2---2--------0---0---------2------4---------
-----4------------3------------1-------------3----------------
--------------------------------------------------------------
--------------------------------------------------------------
-----0------------0------------0-------------0----------------
             ^            ^            ^
    tired  of   being       alone              but will   


--4-4--2-----------2/4\---------------------------------------
--4-4--4-----------2/4\-----4---------------------------------
--4-4--4--------4-----------4---4-----4-----------------------
--------------------------------4-----4-----------------------
--2---------2---------------------------------------2-3-4-----
-------------------------4------4---4-------4-----4-----------
     ^
   my lonely heart      play the part   Ofdfool  again,     

-------------2--2------
---4---4h5------0------
---4-------------------
-----------------------
-----------------------
----------------2------

  before  i  begin

chorus:

------------------------2--------------2-----2--------------
--------------0---------2--------------2-----4--------------
---4-------------3---------------------------4--------4-----
---4----------------4---------------------------------4-----
---------------------------------2h3---2-----2----2---------
-------2---0------------------------------------------------

  foolish heart,       hear  me       call...inG stop be..

----------------2-------------7-7--------------------
------0---------2-------------7-7---0----------------
---------3--------------------------8----------------
------------4----------------------------------------
-----------------------------------------------------
---0--------------------0-7h9-7---0-7---7--9-7-6-4---

  fore        you  start     fal..ling  foolish 

----------------2---------------2---------------------------------0h2---
------0---------2------------4--4--4------------------------------0h2---
---------3-------------------4-----4-----6----4---------------4---------
------------4----------------------------4----4---------------4---------
-----------------------2h3---2-----2-----------------2-3--4-------------
---0-------------------------------------6----4----4--------------2-----

 heart,       heed my      war   ning        U'vebeen wrong  before    

---------------------------------------------------------
------------0---------0-----------2---4--------4---------
---------------3---------3--------4---4--------4---------
------------------4---------4----------------------------
----------------------------------2---2----2-------2-----
---------0-----------------------------------------------

foolish heart

---------------------------------------------------------
------------0---------0-----------2---4--------4---------
---------------3---------3--------4---4--------4---------
------------------4---------4----------------------------
----------------------------------2---2----2-------2-----
---------0-----------------------------------------------

          stop before, you start falling

--------------------------------------------------------
------------0---------0-----------2---4-----------------
---------------3---------3--------4---4----6----4-------
------------------4---------4--------------4----4-------
----------------------------------2---2-----------------
---------0---------------------------------6----4-------

                               heed my warning

------------------------------------0-------------------
------------------4--------------0-----0----------------
------------------4-----------4-----------3-------------
---------------------------4--------------3-------------
--------------4-----------------------------------------
--------4--------------2--------------------------------
 
 you've been wrong before....


----------------------2------------2------------2-------
--4--2--0--2-----4--2-2-0--2-----4-4-2---2-0----0--2----
--4--3--1--3-----4--3---1--3-----4---3---3-1-------3----
--------------------------------------------------------
--------------------------------------------------------
--0--0--0--0-----0--0---0--0-----0---0-------0-----0----


------------0-2-4-6-7-9-11-12-14-16-18---
--0---0-2-4-4-4---4-7------12------------
--1h3-----4------------------------------
-----------------------------------------
-----------------------------------------
--0-------0-------0--------0-------------

                                 foolish
chorus							fIll 1

-----------------2--------------2-----2--------------   ----------------
-------0---------2--------------2-----4--------------	-7h9p7----------
----------3---------------------------4--------4-----	------8p6-------
-------------4---------------------------------4-----	---------h9-9---
--------------------------2h3---2-----2----2---------	---------|------
----0------------------------------------------------	---------|------
							 hammer fret w/
   heart,       hear  me       call...ing stop be..	          pinky	
							fill 2
----------------2-------------7-7--------------------	---7-9-11p9p7---
------0---------2-------------7-7---0----------------	-9--------------
---------3--------------------------8----------------	----------------
------------4----------------------------------------	----------------
-----------------------------------------------------	----------------
---0--------------------0-7h9-7---0-7---7--9-7-6-4---	----------------

  fore        you  sTart     fal..ling  foolish 

----------------2------------------------------------0h2---
------0---------2-----2---4-----------------------4--0h2---
---------3------------4---4----6---4--------------4--------
------------4------------------4---4-----------------------
----------------------2---2---------------2-3-4------------
---0---------------------------6---4----4------------------

 heArt,       heed my warning       u'vebeen wRong before   

--------0----------------------
------2---4p2--2---------------
--0h4--------4---4-------------
-------------------4-----------
---------------------4---------
-------------------------------
		      

							fill 1
-----------------------------------------------------   ---------------
-------0---------0------------2---4-------4----------	----7-7h9\7~~--
----------3---------3---------4---4-------4----------	-6/8-----------
-------------4---------4-----------------------------	---------------
------------------------------2---2----2------2------	---------------
----0------------------------------------------------	---------------
							 
   	          	
							fill 2
-----------------------------------------------------	-9-11-12-11-9--14
------0----------0------------2---4------------------	-----------------
---------3----------3---------4---4------------------	-----------------
------------4----------4---------------------4-------	-----------------
------------------------------2---2------4/6---------	-----------------
---0-------------------------------------------------	-----------------

          	     foolish h...e...a...r...t

					fill 3	
--------------------------------------------------------
------------0---------0-----------2---4-----------------
---------------3---------3--------4---4----6----4-------
------------------4---------4--------------4----4-------
----------------------------------2---2-----------------
---------0---------------------------------6----4-------

				h.e.a.r.t..	

 fill 3
--17----17-14b-14-12-14/12-----16/14--14/12----------
-----------------------------------------------------
-----------------------------------------------------
-----------------------------------------------------
-----------------------------------------------------
-----------------------------------------------------



----------------------------0---------------------------
------------------4------2h4---------0------------------
------------------4------4----------4-------------------
-----------------------------------4--------------------
----------2-3-4-------------------4---------------------
--------4-----------------------------------------------

					don't be wrong anymore


do intro riffs:

end

  any comments/suggestions: send mail to: leemo192000@yahoo.com



Comments