Limp Bizkit - Underneath The Gun Chords & Tabs

 

Underneath The Gun Chords & Tabs

Limp Bizkit Chords & Tabs

Version: 1 Type: Tab 0 ratings
1 star 2 stars 3 stars 4 stars 5 stars
comments

Underneath The Gun Tab

   
Artist Lmp bizkit
Album: Results may vary
Tuning: C# F# B E G# C#
tabbed by Gary666

Bass intro

Intro(sames as verse)
---3-2-2~~~-----------------------|
---3-3-3~~~-----------------------|
---2-2-2~~~----play a few times---|
---0-0-0~~~-----------------------|
-------0~~~-----------------------|
----------------------------------|

Chorus        fill in
---------------- ---3-2-2~~~----|
--8--------10--- ---3-3-3~~~----|
--7---------9--- ---2-2-2~~~----|
--x---------x--- ---0-0-0~~~----|
--8--------10--- -------0~~~----|
---------------- ---------------|
[ Tab from: http://www.guitartabs.cc/tabs/l/limp_bizkit/underneath_the_gun_tab.html ]
Chorus 2                                                   fill
-----------------------------------------------------------  ------------|
-----------------------------------------------------------  ------------|
------------------------------------5*-7*-7*---------------  ------------|
------7-7-5-------------------------5*-7*-7*--5------------  -5----------|
--5-5-5-5\3--play tree times than:------------3---------5--  -3-----5----|
--------------------------------------------------------3--  -------3----|
  . .

solo with delay and dist
----------------------------------------------------------------------------------|
-------------------------------------------------------------------17-19-20~~-20--|
--s12~~---11~~--11-11-11-11h12-12-12-12-12s14-14-14-17-17-17s19-17----------------|
----------------------------------------------------------------------------------|
----------------------------------------------------------------------------------|
----------------------------------------------------------------------------------|

------------------------------|
--20~~20-------20-20~~--------|
------------------------------|
------------------------------|
------------------------------|
------------------------------|

thats it
Comments