Limp Bizkit - Truth Chords & Tabs

 

Truth Chords & Tabs

Limp Bizkit Chords & Tabs

Version: 4 Type: Tab 0 ratings
1 star 2 stars 3 stars 4 stars 5 stars
comments

Truth Tab

   
Limp Bizkit - The Truth
Tabbed by: Xavieres
Tunning: B,F#,B,E,G#,C#

Intro (With delay): x12
|----------------------------|
|---------6------------------|
|-------------------2--------|
|----------------------------|
|----------------------------|
|-0--------------------------|

2nd guitar plays this with the bass: x8
Delay:
|-----------------------------------------------|
|-----------------------------------------------|
|-----------------------------------------------|
|-----------------------------------------------|
|-x-x-x-x-x-x-x-x-x-x-x-x-x-x-8-8-8-8-8-8-8-8-8-|
|-----------------------------------------------|

Chorus: x4
|-----------------------------------------------------------------|
|-----------------------------------------------------------------|
|-----------------------------------------------------------------|
|-----------------------------------------------------------------|
|-5-3---8-7---5-3---5-3---8-7-5-5-5-3---8-7---5-3---8-8-8-8-8-8-8-|
|-----0-----0-----0-----0-------------0-----0-----0---------------|
[ Tab from: http://www.guitartabs.cc/tabs/l/limp_bizkit/truth_tab_ver_4.html ]
Chorus 2:
|-------------------------------------------------------------|
|-------------------------------------------------------------|
|-------------------------------------------------------------|
|-0-0-0-0-0-3h6p3---0---3---6---0-0-0-0-0-3h6h3---0---1p0h1---|
|-0-0-0-0-0-3h6p3---0---3---6---0-0-0-0-0-3h6h3---0---1p0h1---|
|-0-0-0-0-0-3h6p3---0---3---6---0-0-0-0-0-3h6h3---0---1p0h1---|
  \__P.M__/                     \__P.M__/     


Verse: x4
|-----------------------------|
|----14-14-14-14-----14-14-14-|
|----17-17-17-17-----17-17-17-| < Play this 2 times
|-----------------------------|
|-----------------------------|
|-0---------------0-----------|

|-13-13-13-13-13-13-13-13-|
|-17-17-17-17-17-17-17-17-|
|-------------------------|
|-------------------------|
|-------------------------|
|-------------------------|


Chorus: x2
Chorus 2: x4
Verse: x4
Chorus: x2
Chorus 2: x4

Verse 2: x4
|-------------------------------------------|
|-------------------------------------------|
|-----7---------12---------10---------10----|
|---7---7----12----12---10----10---10----10-|
|-5-------10----------8----------8----------|
|-------------------------------------------|

|---------------------------------|
|---------------------------------|
|-----9-------9-------9-------9---|
|---9---9---9---9---8---8---8---8-|
|-7-------7-------6-------6-------|
|---------------------------------|

Chorus: x6
Chorus 2: x4
Comments