Limp Bizkit - Truth Chords & Tabs

 

Truth Chords & Tabs

Limp Bizkit Chords & Tabs

Version: 1 Type: Bass Tab 0 ratings
1 star 2 stars 3 stars 4 stars 5 stars
comments

Truth Bass Tab

   
The Thuth                                      Tabbed by:
By: Limp bizkit                                Eduardo Chavez
Tunning: (B,E,A,D,G)

|||||TIMES|||||
S=16th      E=8th 
Q=Quarter   H=Half
W=whole     .=Dotten
/=slide     R=Rest

BPM=95
Riff 1 - Intro

S S S S S S S S S S S S S S S S   S S S S S S S S S S S S Q/   
||--------7-6---------------7-6-----|-----------7-6----------------||
||*-9-7-9-----9-7-9-0-9-7-9-----7-9-|-0-9-9-7-9-----9-7-9-0/0/0---*||
||----------------------------------|------------------------------||
||*---------------------------------|-----------------------------*||
||----------------------------------|------------------------------||

Riff 2 - Chorus
[ Tab from: http://www.guitartabs.cc/tabs/l/limp_bizkit/truth_btab.html ]
    E S S Q. E E         
||-------------------||
||*-----------------*||
||-------------------||
||*-----------------*||
||--0-0-3-0.-0--3-5--||

Riff 3 - Verse

    E/E H E E     E/E H  E E   W   W
||-------------|-------------|----|----||
||*------------|-------------|----|---*||
||-------------|-------------|-R--|R---||
||*------------|-------------|----|---*||
||--2/0---0----|--2/0----2---|----|----||

Riff 4 - Bridge

   H   H    W   W   W
||-------|----|---|-------||
||*------|----|---|------*||
||-------|----|---|-------||
||*-7-12-|-10-|-9-|-8----*||
||-------|----|---|-------||

Riff 1 - Intro  (x10)
Riff 2 - Chorus (x8)
Riff 3 - Verse  (x4)
Riff 1 - Intro  (x2)
Riff 2 - Chorus (x8)
Riff 3 - Verse  (x4)
Riff 1 - Intro  (x2)
Riff 2 - Chorus (x8)
  Rest 32/4 times
Riff 4 - Bridge (x4)
Riff 1 - Intro  (x2)
Riff 2 - Chorus (x8)

This is a inquestionable truth (H)
By. Eduardo Chavez of Mexico
VIVA MEXICO
Comments