Limp Bizkit - Trust Chords & Tabs

 

Trust Chords & Tabs

Limp Bizkit Chords & Tabs

Version: 1 Type: Bass Tab 0 ratings
1 star 2 stars 3 stars 4 stars 5 stars
comments

Trust Bass Tab

   
Artist - Limp Bizkit
Song - Trust?
Tuning DADG

INTRO/CHORUS
G|--------------------------------|
D|--------------------------------|
A|--------------------------------|
D|-1--0-1-0-1--(x3)--5--0-5-0-5-6-|
[ Tab from: http://www.guitartabs.cc/tabs/l/limp_bizkit/trust_btab.html ]
VERSE
G|-------------|
D|-------------|
A|-------------|
D|-0-1-0--1-0--| (REPEAT HEAPS)
END OF VERSE
G|-----------|
D|-----------|
A|-----------|
D|-0-1-0-0-1-|

BRIDGE
G|------------------|
D|------------------|
A|--------0-4-3-2-0-|
D|-1-0--------------|

2ND PART OF BRIDGE 
I DON'T TRUST NOBODY..(HEAVY BIT)
G|--------------------|
D|--------------------|
A|--------------------|
D|-1-0-0--0-1-0-1-0-0-|

AND THATS IT!!
PRETTY EASY ONCE U GET THE HANG OF IT!!

Comments