Limp Bizkit - Thives Chords & Tabs

 

Thives Chords & Tabs

Limp Bizkit Chords & Tabs

Version: 1 Type: Tab 0 ratings
1 star 2 stars 3 stars 4 stars 5 stars
comments

Thives Tab

Thives
by:limp bizkit



---------------------------------------------------------------
---------------------------------------------------------------                          repte:7 times
---------------------------------------------------------------
---------------------------------------------------------------
---2-2-2-2-2--1--2-2-2-2-2-------------------------------
---0-0-0-0-0--3--0-0-0-0-0-------------------------------



---------------------------------------------------------------
---------------------------------------------------------------
---------------------------------------------------------------
---------------------------------------------------------------
---2-2-2-2-2--3-hold 4 sec---2-2-2-2-3----------------
---0-0-0-0-0--1------------------0-0-0-0-1----------------



[ Tab from: http://www.guitartabs.cc/tabs/l/limp_bizkit/thives_tab.html ]
----------------------------------------------------------------
----------------------------------------------------------------
----------------------------------------------------------------
----------------------------------------------------------------
---2-2-2-2-3--------------------------------------------------
---0-0-0-0-1--------------------------------------------------




repte the hole thing and end like this





----------------------------------------------------------------
----------------------------------------------------------------
----------------------------------------------------------------
----------------------------------------------------------------
---2-2-2-2-3--------------------------------------------------
---0-0-0-0-1--------------------------------------------------
Comments