Limp Bizkit - The One Chords & Tabs

 

The One Chords & Tabs

Limp Bizkit Chords & Tabs

Version: 3 Type: Bass Tab 0 ratings
1 star 2 stars 3 stars 4 stars 5 stars
comments

The One Bass Tab

   
----------------------------------------------------------------------------
	 Song:  The One
	 Band:  Limp Bizkit
	Album:  Chocolate Starfish and the Hot Dog Flavored Water
----------------------------------------------------------------------------
Tabbed by:  ZeroPhive
Email:      zero@zero.isa-geek.net

Here's how I play this song on a 5 string bass.  The End Chorus Variation
and Outro aren't actually played in the song, but I like how they sound for
the end of the song.  Below are the basic riffs, you should be able to
figure out where to play them in the song...  I've also transcribed it for
4 string Drop-D tuning below the 5 string version of the tab.

5 String TAB:

Tuning:  Standard

Intro/Verse
G|---------------------9--------------------------|
D|----4--------------9----------11-------9--------|
A|--------5------5/7---------11----11--9---9\-----|
E|--2----------------------9----------------------|
B|------3-----------------------------------------|

Interlude/Breakdown
G|------------------------------------------------|
D|------------------------------------------------|
A|-----5--2---------------------------------------|
E|--2---------------------------------------------|
B|------------------------------------------------|
[ Tab from: http://www.guitartabs.cc/tabs/l/limp_bizkit/the_one_btab_ver_3.html ]
Chorus
G|------------------------------------------------|
D|------4-----------------------------------------|
A|---------5555555552222222222222222--------------|
E|--2222-22---------------------------------------|
B|------------------------------------------------|

End Chorus variation
G|------------------------------------------------|
D|------4-----------------------------------------|
A|------------------------------------------------|
E|--2222-22---------------------------------------|
B|---------3333333330000000000000000--------------|

Outro
G|------------------------------------------------|
D|------------------------------------------------|
A|------------------------------------------------|
E|--2---------------------------------------------|
B|-----3--0---------------------------------------|


| /  slide up
| \  slide down

============================================================================


4 String TAB

Tuning:  Drop-D

Intro/Verse
G|---------------------9--------------------------|
D|----4--------------9----------11-------9--------|
A|--------5------5/7---------11----11--9---9\-----|
D|--4---0-----------------11----------------------|

Interlude/Breakdown
G|------------------------------------------------|
D|------------------------------------------------|
A|-----5--2---------------------------------------|
D|--4---------------------------------------------|


Chorus
G|------------------------------------------------|
D|------4-----------------------------------------|
A|---------5555555552222222222222222--------------|
D|--4444-44---------------------------------------|


| /  slide up
| \  slide down

============================================================================
Comments