Limp Bizkit - Take A Look Around Chords & Tabs

 

Take A Look Around Chords & Tabs

Limp Bizkit Chords & Tabs

Version: 4 Type: Tab 0 ratings
1 star 2 stars 3 stars 4 stars 5 stars
comments

Take A Look Around Tab

   
#----------------------------------PLEASE NOTE--------------------------------#
#This file is the author's own work and represents their interpretation of the#
#song. You may only use this file for private study, scholarship, or research.#
#-----------------------------------------------------------------------------#
#-- File created with Instab - http://www.pconline.com/~smcarey/instab.html --#
#-----------------------------------------------------------------------------#

Author/Artist: Limp Bizkit
Title: take a look around
Album: choclate starfish and the hot dog flavoured water
Transcribed by: Christian Perschler
Email: perschi@uboot.com

Tune down your guitar to: C# F# B E G# C#, but
you can also play it in normal tuning. The song is
very easy to play, so have much fun with it!!!
This is the true tab!! belive me! :-)

------------------------------------------------------------------------------
------------------------------------------------------------------------------
-----------------2--4--2------------------------------------------------------
-4v--4v--4v--4v-------------4v--4v--4v--4v--2--3------------------------------
------------------------------------------------------------------------------
------------------------------------------------------------------------------
 This is the first part of the song, repeat it a few times. Use overdrive!    

-17--14------17--14------17--14------17--14-----------------------------------
---------14----------13----------12----------15-15-15-15-15--14---------------
------------------------------------------------------------------------------
------------------------------------------------------------------------------
------------------------------------------------------------------------------
------------------------------------------------------------------------------
 This is the verse, its simple to play. Without overdrive!                    
[ Tab from: http://www.guitartabs.cc/tabs/l/limp_bizkit/take_a_look_around_tab_ver_4.html ]
------------------------------------------------------------------------------
------------------------------------------------------------------------------
------------------------------------------------------------------------------
------------------------------------------------------------------------------
-----------------0-2----------------------------------------------------------
-0-2-0-2-0-2-0-2-------0-2-0-2-0-2-0-2-0-1------------------------------------
 This is the pre-chorus, repeat 4 times. Full overdrive!!                     

------------------------------------------------------------------------------
------------------------------------------------------------------------------
-----------------2-4----------------------------------------------------------
---4---4---4---4-0-4----4---4---4---4--2-3------------------------------------
---4---4---4---4-0-2----4---4---4---4--2-3------------------------------------
-0-2-0-2-0-2-0-2------0-2-0-2-0-2-0-2--0-1------------------------------------
 m   m   m   m        m   m   m   m         Chorus, 4 times full overdrive    

------------------------------------------------------------------------------
------------------------------------------------------------------------------
-----2-4----------------------------------------------------------------------
-4-4-0-4--4-4-2-3-------------------------------------------------------------
-4-4-0-2--4-4-2-3-------------------------------------------------------------
-2-2------2-2-0-1-------------------------------------------------------------
                   This is the brake in the song, 2 times full overdrive      

-------------------------|----------------------------------------------------
-------------------------|----------------------------------------------------
-------------------------|---------2-4-2--------------------------------------
-------------------------|--4-4--4-------4-4--4-2-4---------------------------
--------0-2--------------|----------------------------------------------------
-2-2--2------2-2--2-0-1--|----------------------------------------------------
 All palm muted! every part 4 times this is the silent part after the brake   

Comments