Limp Bizkit - Take A Look Around Chords & Tabs

 

Take A Look Around Chords & Tabs

Limp Bizkit Chords & Tabs

Version: 21 Type: Tab 0 ratings
1 star 2 stars 3 stars 4 stars 5 stars
comments

Take A Look Around Tab

Intro (w/ Delay) 
C#------------------------------------------------------------- 
G#------------------------------------------------------------- 
E-------------------------------------------------------------- 
B-------------------------------------------------------------- 
F#-----------------------12-14p12------------------------------ 
C#---14--14--14--14--14-----------14--14--14--14--14--12--13--- 

Verse (w/ Delay)(0:39) 
C#--17--14-----17--14------17--14-------17--14----------------- 
G#---------14----------------------------------15-15-15-14-14-- 
E---------------------17----------16--------------------------- 
B-------------------------------------------------------------- 
F#------------------------------------------------------------- 
C#------------------------------------------------------------- 

Pre-Chorus (1:26) 
C#------------------------------------------------------------- 
G#------------------------------------------------------------- 
E-------------------------------------------------------------- 
B-------------------------------------------------------------- 
F#-------------------------0--2-------------------------------- 
C#--0--2--0--2--0--2--0--2-------0--2--0--2--0--2--0--2--0--1-- 

Chorus (1:46) 
C#------------------------------------------------------------- 
G#------------------------------------------------------------- 
E---------------------------2--4------------------------------- 
B------4-----4-----4-----4--2--4----4-----4-----4-----4--2--3-- 
F#-----4-----4-----4-----4--0--2----4-----4-----4-----4--2--3-- 
C#--0--2--0--2--0--2--0--2-------0--2--0--2--0--2--0--2--0--1-- 
[ Tab from: http://www.guitartabs.cc/tabs/l/limp_bizkit/take_a_look_around_tab_ver_21.html ]
Chorus 2 (1:55) 
C#------------------------------------------------------------- 
G#------------------------------------------------------------- 
E---------------------------2--4------------------------------- 
B------4-----4-----4-----4--2--4----4-----4-----4-----4--2--3-- 
F#-----4-----4-----4-----4--0--2----4-----4-----4-----4--2--3-- 
C#--0--2--0--2--0--2--0--2-------0--2--0--2--0--2--0--2--0--1-- 
P.M.-     -     -     -          -     -     -     - 

Chorus 3 (3:30) 
C#------------------------------------------------------------- 
G#------------------------------------------------------------- 
E------------------2-----4------------------------------------- 
B------4-----4-----2-----4--------4-----4-----2-----4---------- 
F#-----4-----4-----0-----2--------4-----4-----2-----4---------- 
C#-----2-----2--------------------2-----2-----0-----2---------- 

Bridge (3:37)(Clean) 
C#------------------------------------------------------------- 
G#------------------------------------------------------------- 
E-------------------------------------------------------------- 
B-------------------------------------------------------------- 
F#-----------------12--14-------------------------------------- 
C#----14--14--14---------------14--14--14--12--13-------------- 
P.M.  - - - - - - - - - - - - - - - - - - - - - - 

Bridge 2 (Delay at 3:53)(Distortion at 4:02) 
C#------------------------------------------------------------- 
G#------------------------------------------------------------- 
E-------------------------------------------------------------- 
B-------------------------------------------------------------- 
F#-----------------12--14p12----------------------------------- 
C#----14--14--14---------------14--14--14--12--13-------------- 
P.M.  - - - - - - - - - - - - - - - - - - - - - -
Comments