Limp Bizkit - Take A Look Around Chords & Tabs

 

Take A Look Around Chords & Tabs

Limp Bizkit Chords & Tabs

Version: 16 Type: Tab 0 ratings
1 star 2 stars 3 stars 4 stars 5 stars
comments

Take A Look Around Tab

artist Limp Bizkit Song Take a look around.
 Tabbed by Rafael Valdez e-mail Rafael_v_s@hotmail.com.
  
  Artist- Limp Bizkit
 Song- Take a look Around
Album- Chocolate Starfish and the hot dog flavored water


Tabbed by  Rafael Valdez       
    This song is very easy and it's sounds cool
If you have any suggestions or comments, then please e-mail me on:
 Rafael _v_s@hotmail.com_
[ Tab from: http://www.guitartabs.cc/tabs/l/limp_bizkit/take_a_look_around_tab_ver_16.html ]
e-----------------------------------------------
B-----------------------------------------------
G--------------0-2----------------------------           ( Intro)
D--2-2-2-2---------2-2-2-2---0-1-2------         
A-----------------------------------------------
E-----------------------------------------------


e----12--9-------12--9--------12--9-----
B-------------9-------------8--------------7-            2nd guitar
G---------------------------------------------
D---------------------------------------------
A---------------------------------------------
E---------------------------------------------

   enjoy  it! 
:: Ultimate Guitar Archive :: 
http://www.ultimate-guitar.com 



Comments