Limp Bizkit - Take A Look Around Chords & Tabs

 

Take A Look Around Chords & Tabs

Limp Bizkit Chords & Tabs

Version: 15 Type: Tab 0 ratings
1 star 2 stars 3 stars 4 stars 5 stars
comments

Take A Look Around Tab

#-----------------------------PLEASE NOTE-------------------------------------#
#This OLGA file is the author's own work and represents their interpretation  #
#of the song. You may only use this file for private study, scholarship, or   #
#research. Remember to view this file in Courier, or some other monospaced    #
#font. See http://www.olga.net/faq/ for more information.                     #
#-----------------------------------------------------------------------------#

Date: Tue, 11 Jul 2000 03:45:00 -0400
From: Tommaso Moroni 
Subject: l/limp_bizkit/take_a_look_around.tab

Take A Look Around (Theme from M:I-2) - Limp Bizkit
written by Lalo Schifrin/Fred Durst
transcribed by Tommaso Moroni (tommaso.m@tiscalinet.it)

tuning : 1 whole step down + "drop c"

I think they use a flanger.
If you use the Boss one (BF-2) as I do I suggest this setting:

manual: 2 o'clock
depth : off
rate  : 10 o'clock
res   : full

I'm sure it's not _THAT_ sound, just mess around to find it!

legend:

> : accent
. : staccato



Intro:

riff 1:

(w/flanger)
                                                           repeat 8
times
d|-----------------------------------------------------------------------
a|-----------------------------------------------------------------------
f|-----------------------------------------------------------------------
c|-----------------------------------------------------------------------
g|---------------------------11--13-11-----------------------------------
c|--15--15-15--15-15--15-15-------------15--15-15--15-15--15-15--13-14---




Verse:

riff 2:

(w/echo)
                                               repeat 2 times
d|-16------16------16------16--------------------------------
a|---18------18------18------18------------------------------
f|-----17------16------15------18--18-18-18--17-17-17--------
c|-----------------------------------------------------------
g|-----------------------------------------------------------
c|-----------------------------------------------------------

then play riff 1 twice
then play the verse again



Pre-Chorus:
[ Tab from: http://www.guitartabs.cc/tabs/l/limp_bizkit/take_a_look_around_tab_ver_15.html ]
(w/dist)
                                                repeat 4 times
d|------------------------------------------------------------
a|------------------------------------------------------------
f|------------------------------------------------------------
c|------------------------------------------------------------
g|------------------------------------------------------------
c|-1h3---1h3---1h3---1h3---6-8---1h3---1h3---1h3---1h3---1--2-



Chorus:

(w/dist)
                                                  repeat 2 times
d|--------------------------------------------------------------
a|--------------------------------------------------------------
f|--------------------------------------------------------------
c|-1h3---1h3---1h3---1h3---6--8---1h3---1h3---1h3---1h3---1--2--
g|-1h3---1h3---1h3---1h3---6--8---1h3---1h3---1h3---1h3---1--2--
c|-1h3---1h3---1h3---1h3---6--8---1h3---1h3---1h3---1h3---1--2--


                                                         repeat 2 times
d|---------------------------------------------------------------------
a|---------------------------------------------------------------------
f|---------------------------------------------------------------------
c|-x-3---x-3---x-3----x-3-1---6--8----x-3---x-3---x-3----1-3-1---1--2--
g|-x-3---x-3---x-3----x-3-1---6--8----x-3---x-3---x-3----1-3-1---1--2--
c|-x-3---x-3---x-3----x-3-1---6--8----x-3---x-3---x-3----1-3-1---1--2--
     >     >     >            >  >      >     >     >            >  >


play Verse and Chorus again, then


                          repeat 2 times
d|--------------------------------------
a|--------------------------------------
f|-.-.---.-.---.-.---.-.----------------
c|-3-3---6-8---3-3---1-2----------------
g|-3-3---6-8---3-3---1-2----------------
c|-3-3---6-8---3-3---1-2----------------
   > >         > >



Break:

riff 1 (8 times) w/palm mute
riff 1 (4 times) at half volume, then swell it up



play Chorus, then riff 2 ad lib (repeat and fade)



That's it!
If you like jumping while playing it (look at the video!),
I suggest 1 step and half down + "drop B" tuning: it's a little bit more
comfortable.
If you use this tuning, everything on the tab must be shifted down one
fret!

If you have suggestions, corrections or anything else, just e-mail me at
tommaso.m@tiscalinet.it


Comments