Limp Bizkit - Take A Look Around Chords & Tabs

 

Take A Look Around Chords & Tabs

Limp Bizkit Chords & Tabs

Version: 11 Type: Tab 0 ratings
1 star 2 stars 3 stars 4 stars 5 stars
comments

Take A Look Around Tab

   
Limp Bizkit, Take a look around.
 Tabbed by Ali K, Stephen@largehouse.freeserve.co.uk.
  
July 22nd 2000

Limp bizkit, take a look around (MI2), chocolate starfish and the hotdog flavoured water (I think)

Tuning = c#,f#,b,e,g#,c#

Intro (use some echo here)
--------------1h3p1-----------------------------------
---33-33-333--------33-33-333--12---------------------
------------------------------------------------------
------------------------------------------------------
------------------------------------------------------
------------------------------------------------------

verse (same)
----13--10-----13--10------13--10---------------------
-----------10-----------------------------------------
----------------------13----------12-----10---1212----
------------------------------------------------------
------------------------------------------------------
------------------------------------------------------

next bit (a bit of distortian here)
("now I know why you wanna hate me")
------------------------------------------------------
------------------------------------------------------
------------------------------------------------------
------------------------------------------------------
---------------1-3------------------------------------
---33-33-3333------33-33-3333--1-2--------------------

heavy bit (fuck loads of distortian)
------------------------------------------------------
------------------------------------------------------
------------------------------------------------------
----55-55-5555---7-9--55-55-5555---3-4----------------
----55-55-5555---7-9--55-55-5555---3-4----------------
----33-33-3333---5-7--33-33-3333---1-2----------------
[ Tab from: http://www.guitartabs.cc/tabs/l/limp_bizkit/take_a_look_around_tab_ver_11.html ]
after heavy bit
------------------------------------------------------
------------------------------------------------------
------------------------------------------------------
----5---5----7---9---5---5---3--4---------------------
----5---5----7---9---5---5---3--4---------------------
----3---3----5---7---3---3---1--2---------------------

second verse

next bit

heavy bit

after heavy bit
then..... ("shhhhhhhh") . ALL PALM MUTED

------------------------------------------------------
------------------------------------------------------
------------------------------------------------------
------------------------------------------------------
-----------1-3----------------------------------------
----3-x-3-------3-x-3---1-2---------------------------

when the vocals start do this. PALM MUTED
------------------------------------------------------
------------------------------------------------------
------------------------------------------------------
------------------------------------------------------
--------------13-15-----------------------------------
------15-X-15--------15-X-15---13-14------------------

after 4 of them do it without palm mutes another 3 times and for the 4th one do this

------------------------------------------------------
------------------------------------------------------
------------------------------------------------------
------------------------------------------------------
-----------------13h15p13-----------------------------
-------15-x-15-------------15B------------------------

Then its the 'heavy bit' then the 'after heavy bit' and finish off with the intro.


I have also tabbed loads of WWF theme tunes if you want them mail me
Stephen@largehouse.freeserve.co.uk 

Thank you and keep on Rockin

 
:: Ultimate Guitar Archive :: 
http://www.ultimate-guitar.com 

 
Comments