Limp Bizkit - Take A Look Around Chords & Tabs

 

Take A Look Around Chords & Tabs

Limp Bizkit Chords & Tabs

Version: 7 Type: Bass Tab 0 ratings
1 star 2 stars 3 stars 4 stars 5 stars
comments

Take A Look Around Bass Tab

   
-------------------------------------------------------------------------------
			     Take a look around - Limp Bizkit
-------------------------------------------------------------------------------

Tabbed By : Dan Arthur
e-mail: i_dont_wanna_be@hotmail.com

Tuning: Low to High (Db,Gb,B,E)

Intro: 4 bar rest

Fig 1
     ~~~~~~~~~~~~~~~~~~~~~~~~~
E |------|------|------|------|
B |------|--7---|------|------|
Gb|--9---|------|--5---|--7---|
Db|------|------|------|------|
[ Tab from: http://www.guitartabs.cc/tabs/l/limp_bizkit/take_a_look_around_btab_ver_7.html ]
Fig 2(1)
E |------------------|------------------|
B |------------------|-7777777777777777-|
Gb|-9999999999999999-|------------------|
Db|------------------|------------------|
                      Fig 2(2)
E |-----------------|-------------------|
B |-----------------|---------7777------|
Gb|5555555555555555-|-77777777-----7788-|
Db|-----------------|-------------------|

Fig 3
E |----------------------|-----------------------|
B |----------------------|-----------------------|
Gb|----------------------|-----------------------|
Db|--0-2-0-2-0-2-0-2-5-7-|--0-2-0-2-0-2-0-2-0-1--|

Fig 4
E |----------------------|-----------------------|
B |----------------------|-----------------------|
Gb|-----------0---2--0---|-----------------------|
Db|-2----2--2------------|-2----2--2--0--1-------|

| /  slide up
| \  slide down
| h  hammer-on
| p  pull-off
| ~  vibrato
| +  harmonic
| x  Mute note

That's everything and I know it's all right. You work out the order yourself because it's not very hard.
=============================================================================
Comments