Limp Bizkit - Stuck Chords & Tabs

 

Stuck Chords & Tabs

Limp Bizkit Chords & Tabs

Version: 4 Type: Bass Tab 0 ratings
1 star 2 stars 3 stars 4 stars 5 stars
comments

Stuck Bass Tab

   
Song: Stuck
Band: Limp Bizkit
Album: Three Dollar Bill, Yall$
Tabbed by: Alejandro Peņa (alexbizkit)
4 STRINGS BASS

Intro and Verse
G |----------------------------------|
D |-------14/13*------------14*--13--|
A |----12---------------12-----------|
E |-11---------------11--------------|
Repeat so many times.

Pre chorus
You wanna play that game bitch? 
G |----------------------| 
D |----------------------| 
A |----------------------| 
E |--3-0-4-0-3-0-4-3-3-0-| 

Chorus
Stuck, Stuck, Deep down in that hole again! 
G |--------------------------| 
D |--------------------------| 
A |--------------------------| 
E |--0-0-7-6-0-0-3-0-4-0-3-3-| Repeat (9x)

End
you don't even know... 
G |------------------------| 
D |------------------------| 
A |------------------------| 
E |--0-0-7-6-0-0-3*--3-3-4-| 

Verse again
All I wanted was a Pepsi...
G |----------------------------------|
D |-------14/13*------------14*--13--|
A |----12---------------12-----------|
E |-11---------------11--------------|

Pre chorus
You wanna play that game bitch? 
G |----------------------| 
D |----------------------| 
A |----------------------| 
E |--3-0-4-0-3-0-4-3-3-0-| 
[ Tab from: http://www.guitartabs.cc/tabs/l/limp_bizkit/stuck_btab_ver_4.html ]
Chorus 
Stuck, Stuck, Deep down in that hole again! 
G |--------------------------| 
D |--------------------------| 
A |--------------------------| 
E |--0-0-7-6-0-0-3-0-4-0-3-3-| Repeat (9x)

End
G |------------------------| 
D |------------------------| 
A |------------------------| 
E |--0-0-7-6-0-0-3*--3-3-4-| 

Bridge
G|----------------| 
D|---6-5----------| 
A|--4---7-8-7-6-5-| 
E|-4--------------| 

I got a little problem... Why you gotta be like that?
G|-----------------------------| 
D|-----------------------------| 
A|-x-4-x-4-4-4-4-x-4-x-4-4-4-4-| 
E|-----------------------------| 

Pre chorus
You wanna play that game bitch? 
G |----------------------| 
D |----------------------| 
A |----------------------| 
E |--3-0-4-0-3-0-4-3-3-0-| 

Chorus 
Stuck, Stuck, Deep down in that hole again! 
G |--------------------------| 
D |--------------------------| 
A |--------------------------| 
E |--0-0-7-6-0-0-3-0-4-0-3-3-| Repeat (9x)

End
G |------------------------| 
D |------------------------| 
A |------------------------| 
E |--0-0-7-6-0-0-3*--3-3-4-| 


Questions and corrections to alexbizkit_lb@hotmail.com or Log on 
http://www.geocities.com/lbespanol
Comments