Limp Bizkit - Story Chords & Tabs

 

Story Chords & Tabs

Limp Bizkit Chords & Tabs

Version: 1 Type: Tab 0 ratings
1 star 2 stars 3 stars 4 stars 5 stars
comments

Story Tab

Limp Bizkit
The Story
The Unquestionable Truth (Part 1)

Standard Tuning

Intro/Verse
e--------------------------------|
b--------------------------------|
g--------------------------------|
d--------------------------------|
a--6-6----8---9---10-10-10-10-10-|
e--6-6----8---9---10-10-10-10-10-|

Chorus
e------------------------|
b------------------------|
g------------------------|
d------------------------|
a---------7~-8h7-5-7-8h7-|
e--0-0-0-----------------|
PM . . .
[ Tab from: http://www.guitartabs.cc/tabs/l/limp_bizkit/story_tab.html ]
Post chorus
e--------|
b--------|
g--------|
d---8--6-|    figure out strumming
a---6--4-|
e--------|

Bridge
e------------------------|
b------------------------|
g------------------------|
d------------------------|
a--7-7------10h8-8-8-8s7-|
e-------0-0--------------|
PM      . .

There is one part where theres the drums and Wes plays a chord after each tmie.  Im not 
sure but i think he just strums an 8 on the d string and a 6 on the A string in one 
 Similar to the post chorus.
Comments