Limp Bizkit - Stalemate Chords & Tabs

 

Stalemate Chords & Tabs

Limp Bizkit Chords & Tabs

Version: 2 Type: Tab 0 ratings
1 star 2 stars 3 stars 4 stars 5 stars
comments

Stalemate Tab

-------------------------------------------------------------------------------
			     STALEMATE - Limp Bizkit
-------------------------------------------------------------------------------
Tabbed by:screamingbass
Email:ed06_949@hotmail.com
[ Tab from: http://www.guitartabs.cc/tabs/l/limp_bizkit/stalemate_tab_ver_2.html ]
Tuning:C# G# C# F# A# D# (the two bottom strings aren't really needed)
riff #1 repeat about 12 times and slow down the last half of the last time.
D#|------------------------------------------------------------------------|
A#|------------------------------------------------------------------------|
F#|-----------7--5/7-------------7-------------------after last time-------|
C#|-------5------------------5------56-------------------5-----------------|
G#|-----5---5--------------5---5-------------------------5-----------------|
C#|-5-5----------------5-5-------------------------------5-----------------|
riff#2 guitar 1 repeat 5 times
D#|------------------------------------------------------------------------|
A#|---------------------------------------after last time------------------|
F#|------------------------------------------------------------------------|
C#|------------------------------------------------------------------------|
G#|------------------------------------------------------------------------|
C#|------55-8-1012-12-88----------------55-5-5-----------------------------|
riff#2 guitar 2 start 3rd time 1st guitar riff repeat 4 times
D#|------------------------------------------------------------------------|
A#|----------------------------------------after last time-----------------|
F#|------------------------------------------------------------------------|
C#|-------5b6r5----5b6r5---5b-------------------5b6r5--5-------------------|
G#|-------5b6r5----5b6r5---5b-------------------5b6r5--5-------------------|
C#|-------5b6r5----5b6r5---5b-------------------5b6r5--5-------------------|
verse (heavy distortion and palm muted)repeat 8 times
D#|------------------------------------------------------------------------|
A#|------------------------------------------------------------------------|
F#|------------------------------------------------------------------------|
C#|---55--5555--55--555----------------------------------------------------|
G#|---55--5555--55--555----------------------------------------------------|
C#|---55--5555--55--555----------------------------------------------------|
chorus let ring
D#|------------------------------------------------------------------------|
A#|------------------------------------------------------------------------|
F#|------------------------------------------------------------------------|
C#|--5----5---5--6-65--5--5---5--3-6---------------------------------------|
G#|--5----5---5--6-65--5--5---5--3-6---------------------------------------|
C#|--5----5---5--6-65--5--5---5--3-6---------------------------------------|
riff#3 guitar 1 repeat 3 times
D#|------------------------------------------------------------------------|
A#|------------------------------------------------------------------------|
F#|-------------------------------------after last time--------------------|
C#|------------------------------------------------------------------------|
G#|------------------------------------------------------------------------|
C#|--55--5--5-5--55-------------------55---5--5----------------------------|
riff#3 guitar 2 repeat 3 times
D#|------------------------------------------------------------------------|
A#|----------------------------------------after last time-----------------|
F#|------------------------------------------------------------------------|
C#|----5b6r5------5b6r5---5b---------------5b6r5--5------------------------|
G#|----5b6r5------5b6r5---5b---------------5b6r5--5------------------------|
C#|----5b6r5------5b6r5---5b---------------5b6r5--5------------------------|
repeat verse
repeat chorus
bridge this doesn't start until a litte bass solo has passed repeat twice
D#|------------------------------------------------------------------------|
A#|------------------------------------------------------------------------|
F#|------------------------------------------------------------------------|
C#|------------------------------------------------------------------------|
G#|----5555566666655555xxxxxxxxxx33333355665555xxxxxxxx--------------------|
C#|------------------------------------------------------------------------|
bridge 2 heavy distortion repeat 4 times
D#|------------------------------------------------------------------------|
A#|------------------------------------------------------------------------|
F#|------------------------------------------------------------------------|
C#|---57--7---8-8-87--7---12-12-13-13/12-----------------------------------|
G#|---35--5---6-6-65--5---10-10-11-11/10-----------------------------------|
C#|------------------------------------------------------------------------|
repeat bridge 1
repeat bridge 2
the interlude I havent quite figured out yet, but for the end of the song,
repeat riff#1 about 20 or 30 times.
Comments