Limp Bizkit - Show Me What You Got Chords & Tabs

 

Show Me What You Got Chords & Tabs

Limp Bizkit Chords & Tabs

Version: 1 Type: Tab 0 ratings
1 star 2 stars 3 stars 4 stars 5 stars
comments

Show Me What You Got Tab

T1: James Lees, Jaymz78@hotmail.com, Limp Bizkit, Show Me What You Got,
 22/6/99 

 S1: I know there is alot of this one, but this one is 100% right., Show
 Me What You Got - Cambodia 
 Written And Performed by Limp Bizkit 
 Transcribed by Jimi Lees 
 Tuned to C sharp (ccgeBFC) 

 Intro - Distortion - Flanger 
 c#---10-10-10-10-10-10-10-10-10-10-10-10-10-10-10-10-10-10-10-- 
 c#---10-10-10-10-10-10-10-10-10-10-10-10-10-10-10-10-10-10-10-- 
 g#---12-12-12-12-12-12-12-12-12-12-12-12-12-12-12-12-12-12-12-- 
 e-------------------------------------------------------------- 
 B-------------------------------------------------------------- 
 F#------------------------------------------------------------- 
 C#------------------------------------------------------------- 

 Main Riff - Distortion 
 c#---------------------------------------------- 
 c#---------------------------------------------- 
 g#---------------------------------------------- 
 e----------------------------------------------- 
 B---3-2-2--3-2-2--8---8----3-2-2--3-2-2--8---8-- 
 F#--3-2-2--3-2-2--8---8----3-2-2--3-2-2--8---8-- 
 C#--1-0-0--1-0-0--6-0-6----1-0-0--1-0-0--6-0-6-- 

 Verse - Distortion - Delay 
 c#---------------------------- 
 c#--12-13-13-14--15-14-16-15-- 
 g#---------------------------- 
 e----------------------------- 
 B----------------------------- 
 F#---------------------------- 
 C#---------------------------- 
[ Tab from: http://www.guitartabs.cc/tabs/l/limp_bizkit/show_me_what_you_got_tab.html ]
 c#--------------------------------------- 
 c#--15-14-16-15--12-13-13-14-15-14-16-15- 
 g#--------------------------------------- 
 e---------------------------------------- 
 B---------------------------------------- 
 F#--------------------------------------- 
 C#--------------------------------------- 

 Chorus - Play 2 times 
 c#--------------------------------------------------------------------------

 c#--------------------------------------------------------------------------

 g#--------------------------------------------------------------------------

 e---------------------------------------------------------------------------

 B-----3-2-2--3-2-2--8---8------------------3-2-2--3-2-2--8---8--------------

 F#----3-2-2--3-2-2--8---8------------------3-2-2--3-2-2--8---8--------------

 C#----1-0-0--1-0-0--6-0-6------------------1-0-0--1-0-0--6-0-6--------------

 Show Me What Ya Got Whoooo-ha 
 Show Me What Ya Got Hey Ladies! 

 c#--------------------------------------------------------------------------

 c#--------------------------------------------------------------------------

 g#--------------------------------------------------------------------------

 e---------------------------------------------------------------------------

 B-----3-2-2--3-2-2--8---8------------------3-2-2--3-2-2--8---8--------------

 F#----3-2-2--3-2-2--8---8------------------3-2-2--3-2-2--8---8--------------

 C#----1-0-0--1-0-0--6-0-6------------------1-0-0--1-0-0--6-0-6--------------

 Who's Hot Who's Not? who?WHO? 
 Who's Hot Who's Not? who...... 
Comments