Limp Bizkit - Sanitarium Chords & Tabs

 

Sanitarium Chords & Tabs

Limp Bizkit Chords & Tabs

Version: 2 Type: Tab 0 ratings
1 star 2 stars 3 stars 4 stars 5 stars
comments

Sanitarium Tab

   
-------------------------------------------------------------------------------
			     sanitarium- limp bizkit
-------------------------------------------------------------------------------
Tabbed by:cuonting on me
Email:titofotito86@hotmail.com

Tuning:C# F A# E G# C#
<>=HARMONIC
intro
|-----<12>----------3---2------<12>-------2-2h3-|------<12>-------  -<12>--|
|----------<12>-------0------------<12>---0-0---|----------<12>---  --<12>-|
|-----------------------------------------------|-----------------x3---<12>|
|-----------------------------------------------|-----------------  -------|
|-----------------------------------------------|-----------------  -------|
|-0-------------------------0-------------------|--0--------------  -0-----|
[ Tab from: http://www.guitartabs.cc/tabs/l/limp_bizkit/sanitarium_tab_ver_2.html ]
|-------------------------------------------------------|
|-------------------------------------------------------|
|-------0-------0-------0-------------------------------|
|-----4-------5-------7-------0-------------------------|x2
|---2-------3-------5-------4--------2------------------|
|-0-------0-------0-------5------5-3---3-5--------------|
verse 1
|-------------------------------------------------------------||
|-------------------------------------------------------------||
|------0-------0-------0--------------------------------------||
|----4-------5-------7--------0-------------------------------||
|--2-------3-------5--------4---4-----------------------------||
|0-------0-------0--------5-----------------------------------||
verse 2                                                        |X2
|-------------------------------------------------------------||
|-------------------------------------------------------------||
|------0-------0-------0--------------------------------------||
|----4-------5-------7-------0--------------------------------||
|--2-------3-------5-------4-------2--------------------------||
|0-------0-------0-------5-----5-3---3-5----------------------||
pre-chorus
|--------------------------|----------------------------------------|
|--------------------------|----------------------------------------|
|---44----55----77---------|----44----55----77----------------------|
|---44----55----77--7777---|----44----55----77-7777--5-5-5----------|
|---22----33----55--7777---|----22----33----55-7777--5-5-5----------|
|00----00----00-----5555---|-00----00----00----5555--3-3-3----------|
chorus
|----------------------------------------------------------------|
|----------------------------------------------------------------|
|--------5/4-5/4----------------------5/4-5/4--------------------|
|---5/4-5/4-5/4--2-0-------------5/4-5/4-5/4-5/44/3-----------|
|---5/4--3/2-3/2------3-2-0-------5/4-3/2-3/2-5/44/3-----------|
|-03/2---------------------3-2-03/2----------3/22/1-----------|

|---------------------------------------------------------|
|---------------------------------------------------------|
|--------5/4-5/4----------------------5/4-5/4-------------|
|---5/4-5/4-5/4--2-0-------------5/4-5/4-5/4------------|
|---5/4--3/2-3/2------3-2-0-------5/4-3/2-3/2------------|
|-03/2---------------------3-2-03/2---------------------|

intro x2
verse
pre-chorus
chorus
fred speaks with the people

|---------------------------------------------------------------------------|
|---------------------------------------------------------------------------|
|---------------------------------------------------------------------------|
|-                           PM                                            -|
|-                                                                         -|
|-0000000000000000000000000000000000000000000000000000000000000000000000000-|

|-----------------------------------------------------|
|-----------------------------------------------------|
|-----------------------------------------------------|
|-----------------------------------------------------|X4
|-----------------------------------------------------|
|-0-2-0-3-00000000-0-2-0-3-0-2-0-3-00000000-----------|
heavy part
|------------------------------------------|
|------------------------------------------|
|-------77-77-------55-55-44-44------------|
|-22-22-77-77-33-33-55-55-44-44------------|
|-22-22-55-55-33-33-33-33-22-22------------|
|-00-00-------11-11------------------------|

|---------------------------------------------------------------------------|
|---------------------------------------------------------------------------|
|----7-----5---------5/4-5/4----------------------5/4-5/4-------------------|
|-2--7--3--5-----5/4-5/4-5/4--2-0-------------5/4-5/4-5/4-5/44/3----------|
|-2--5--3--3-----5/4-3/2-3/2------3-2-0-------5/43/2-3/2-5/44/3----------|
|-0-----1------0-3/2--------------------3-2-0-3/2----------3/22/1----------|
intro end
Comments