Limp Bizkit - Sanitarium Chords & Tabs

 

Sanitarium Chords & Tabs

Limp Bizkit Chords & Tabs

Version: 1 Type: Tab 0 ratings
1 star 2 stars 3 stars 4 stars 5 stars
comments

Sanitarium Tab

   
Sanitarium(Limpbizkit's Version)
Tuning - C# F# B E G# C#
[Note : Some kind of device were used in the intro and verse]
Legend:
*    - Natural Harmonics	~ - Let Ring
/    - Slide Up		        \ - Slide Down
P.M. - Palm Mute                x - Rake
h    - Hammer On                p - Pull Off

Intro(Non-Distortion):
c# ---*12~------3---5p3-2-|---*12~------2---2h3-|---*12~------  |---*12~-----------|
G# --------*12~---0-------|--------*12~---0-----|--------*12~-  |--------*12~------|
E  -----------------------|---------------------|-------------  |-------------*12~-|
B  -----------------------|---------------------|-------------3x|------------------|
F# -----------------------|---------------------|-------------  |------------------|
C# -0---------------------|-0-------------------|-0-----------  |-0----------------|

c# ---------------------------------------------  |
G# ---------------------------------------------  |
E  -------0-------0-------0---------------------  |
B  -----4-------5-------7-------0-------0-------2x|
F# ---2-------3-------5-------4-------2---------  |
C# -0-------0-------0-------5-----5/3-----3\5-5-  |

Verse(Non-Distortion):
   Welcome to.........no one will,  Moon is......................deranged 
c# -----------------------------------------------------------------------------  |
G# -----------------------------------------------------------------------------  |
E  -------0-------0-------0---------------0-------0-------0---------------------  |
B  -----4-------5-------7-------0~------4-------5-------7-------0-------0-------2x|
F# ---2-------3-------5-------4-------2-------3-------5-------4-------2---------  |
C# -0-------0-------0-------5-------0-------0-------0-------5-----5/3-----3\5-5-  |

Pre-Chorus(Distortion):
   Sleep my.........               RAGE, RAGE, RAGE, RAGE, RAGE!!
c# ----------------------------------  |-------------------S-----|
G# ----------------------------------  |-------------------I-----|
E  ----------------------------------  |-------------------L-----|
B  -----4-4-----5-5-----7-7----------2x|-------------------E-----|
F# -----2-2-----3-3-----5-5--7-7-7-7-  |-5-----5-----5-----N-----|
C# -0-0-----0-0-----0-0------5-5-5-5-  |-3-----3-----3-----T-----|
    P.M.    P.M.    P.M.     P.M....

Chorus(Distortion):
                                   Sa-          ni-
c# -------------------------------|-------------------|
G# -------------------------------|-------------------|
E  -------------x-x-5/4-x-x-5--4~-|-------------------|
B  -----x-x-5/4-x-x-5/4-x-x-5--4~-|-0-2-0-------------|( i wasn't so
F# -----x-x-5/4-x-x-3/2-x-x-3--2~-|-------3-2---------|  sure for dis part )
C# -0~--x-x-3/2-------------------|-----------5-3-2-3-|

   tarium..!!!                     Leave    me-
c# -------------------------------|----------------|
G# -------------------------------|----------------|
E  -------------x-x-5/4-x-x-5--4~-|-0-0--4--0-0----|
B  -----x-x-5/4-x-x-5/4-x-x-5--4~-|-0-0--4--0-0--4-|
F# -----x-x-5/4-x-x-3/2-x-x-3--2~-|-0-0--2--0-0--2-|
C# -0~--x-x-3/2-------------------|----------------|
                                   P.M.    P.M.

   be..!!                          Sa-          ni-
c# -------------------------------|-------------------|
G# -------------------------------|-------------------|
E  -------------x-x-5/4-x-x-5--4~-|-------------------|
B  -----x-x-5/2-x-x-5/4-x-x-5--4~-|-0-2-0-------------|( same here )
F# -----x-x-5/4-x-x-3/2-x-x-3--2~-|-------3-2---------|
C# -0~--x-x-3/4-------------------|-----------5-3-2-3-|

   tarium..!!!                     Leave me alone....!
c# -------------------------------|
G# -------------------------------|
E  -------------x-x-5/4-x-x-5--4~-|
B  -----x-x-5/4-x-x-5/4-x-x-5--4~-|
F# -----x-x-5/4-x-x-3/2-x-x-3--2~-|
C# -0~--x-x-3/2-------------------|

After Chorus, before Fred Durst start singing again, play this(Non-Distortion):
c# ---------------------------------------------  |
G# ---------------------------------------------  |
E  -------0-------0-------0---------------------  |
B  -----4-------5-------7-------0-------0-------2x|
F# ---2-------3-------5-------4-------2---------  |
C# -0-------0-------0-------5-----5/3-----3\5-5-  |
[ Tab from: http://www.guitartabs.cc/tabs/l/limp_bizkit/sanitarium_tab.html ]
>Repeat Verse, Pre-Chorus and Chorus again.

Bridge(Distortion):
(When Fred Durst is talking some trash, just play this till he finishes his trash talk)
c# -------------------------------------------------|
G# -------------------------------------------------|
E  -------------------------------------------------|
B  -------------------------------------------------|
F# -------------------------------------------------|
C# -0-0-0-0-0-0-0-0-0-0-0-0-0-0-0-0-0-0-0-0-0-0-0-0-|

Then play this(Heavy Part):
c# -----------------------------------------------  |
G# -----------------------------------------------  |
E  -----------------------------------------------  |
B  -0h2-0h2-----------------------0h1-0h1-0h1-0h2-4x|
F# -0h2-0h2-----------------------0h1-0h1-0h1-0h2-  |
C# ---------0-0-0-0-0-0-0-0-0-0-0-----------------  |

When Fred Durst sings, play this:
                 Fear of living-    on         Natives getting rest-
1] c# -----------------------------|----------------------------|
   G# -----------------------------|----------------------------|
   E  -----------------------------|-----7-7~-------------------|
   B  -0-2--2-2~-------------------|0-2--7-7~-------------------|
   F# -0-2--2-2~-------------------|0-2--5-5~-------------------|
   C# ------0-0~-------------------|----------------------------|

      less now    Mutiny in the-    air        Got some death-
2] c# -----------------------------|----------------------------|
   G# -----------------------------|----------------------------|
   E  -----------------------------|-----5-5-------4-4~---------|
   B  -0-2--3-3~-------------------|0-2--5-5--5-4--4-4~---------|
   F# -0-2--3-3~-------------------|0-2--3-3--3-2--2-2~---------|
   C# ------1-1~-------------------|----------------------------|

      to do      Mirror stares back hard       Kill it's such a friend-
3] c# -----------------------------|----------------------------|
   G# -----------------------------|----------------------------|
   E  -----------------------------|-----7-7~-------------------|
   B  0-2--2-2~--------------------|0-2--7-7~-------------------|
   F# 0-2--2-2~--------------------|0-2--5-5~-------------------|
   C# -----0-0~--------------------|----------------------------|

      ly word    Seems the only-    way        for reaching out again
4] c# -----------------------------|----------------------------|
   G# -----------------------------|----------------------------|
   E  -----------------------------|-----5-5-------4-4~---------|
   B  0-2--3-3~--------------------|0-2--5-5--5-4--4-4~---------|
   F# 0-2--3-3~--------------------|0-2--3-3--3-2--2-2~---------|
   C# -----1-1~--------------------|----------------------------|

>Then repeat 1, 2, 3 and number 4 is a bit different for the final time.
It goes like this:
   To do...Mirror stares back hard...Kill it's such a friendly word...Seems the only way...
c# ----------------------------------------------------------------------------------------|
G# ----------------------------------------------------------------------------------------|
E  ---------------------------7~-----------------------------------------------------------|
B  ---2~----------------------7~------------------------3~---------------------------5~----|
F# ---2~----------------------5~------------------------3~---------------------------5~----|
C# ---0~------------------------------------------------1~---------------------------3~----|

   TO BRING IT BACK AGAIN!!

>Then, repeat Chorus again for the last time.

Outro:
c# ---------------------------------------------|-------------------0~-|
G# ---------------------------------------------|-----------------0----|
E  -------0-------0-------0---------------------|-------0-------0------|
B  -----4-------5-------7-------0-------0-------|-----4-------5--------|
F# ---2-------3-------5-------4-------2---------|---2-------3----------|
C# -0-------0-------0-------5-----5/3-----3\5-5-|-0-------0------------|

That's it!! i think.......~
Please tell me wut do u think about dis tab cause dis is my first tab ever.
Please post your comments in the "Read Corrections" column cause my e-mail has
already expired a lonnnnnngggggggggggggg time ago and i'm lazy to reactivate it!!
~enjoy...chowzs...~~
Comments