Limp Bizkit - Rollin Chords & Tabs

 

Rollin Chords & Tabs

Limp Bizkit Chords & Tabs

Version: 9 Type: Tab 0 ratings
1 star 2 stars 3 stars 4 stars 5 stars
comments

Rollin Tab

   
LIMP BIZKIT, ROLLIN.
Tabbed by gary, jubilee2@bolt.com.
  


intro/ pre chorus         chorus



C#-----------------------:-----------------------------:
G#-----------------------:-----------------------------:
E--------6-6-6-----------:-----------------------------:
B--4-4-4-X-X-X-7-7-------:4--11-9--7--6--7----4\-4\-:
F#-X-X-X-4-4-4-X-X-------:4--11-9--7--6--7----4\-4\-:
C#-2-2-2-------5-5-------:2--9--7--5--4--5----2\-2\-:
    C#    G#   E                      
                          C# G# F# E  D# E    C# C#
[ Tab from: http://www.guitartabs.cc/tabs/l/limp_bizkit/rollin_tab_ver_9.html ]
                  OR FOR ALTERNATE TUNING...

C#-----------------------:-----------------------------:
G#-----------------------:-----------------------------:
E--------6-6-6-----------:-----------------------------:
B--4-4-4-X-X-X-7-7-------:4--11-9--7--6--7----4\-4\-:
F#-X-X-X-4-4-4-X-X-------:4--11-9--7--6--7----4\-4\-:
B--4-4-4-------7-7-------:4--11-9--7--6--7----4\-4\-:
   C#    G#   E                      
                          C# G# F# E  D# E    C# C# 
 
:: Ultimate Guitar Archive :: 
http://www.ultimate-guitar.com 



Comments