Limp Bizkit - Rollin Chords & Tabs

 

Rollin Chords & Tabs

Limp Bizkit Chords & Tabs

Version: 6 Type: Tab 0 ratings
1 star 2 stars 3 stars 4 stars 5 stars
comments

Rollin Tab

   
#----------------------------------PLEASE NOTE---------------------------------#
#This file is the author's own work and represents their interpretation of the #
#song. You may only use this file for private study, scholarship, or research. #
#------------------------------------------------------------------------------#

Limp Bizkit - Rollin'
Tabbed by: Sean Stinson

I tabbed this song to amuse myself. I think I'm 
the first to do it. I don't like Limp Bizkit,
but alot of people want to play this song, 
so here it goes....

The song is in Drop D (DADGBE)

Intro: No guitar.

Main riff: this is played basically throughout the
whole song. It's heavily muted during the verses.
|----------------------------------------------|
|----------------------------------------------|
|----------------------------------------------|
|-0-0--7-7--5-5--3--5-3-0-0--------0-0----0-0--|
|-0-0--7-7--5-5--3--5-3-0-0--rest--0-0----0-0--|
|-0-0--7-7--5-5--3--5-3-0-0--------0-0----0-0--|

This is the little horn effect thing played during
the last part of the verses tabbed for guitar.
|----------------------|
|----------------------|
|----------------------|
|-21-21---20-20-20-21--|
|-20-20---19-19-19-20--|
|-19-19---18-18-18-19--|

During the part where they give all their shoutouts, this
little thing is played at the end of each measure. I'm not
to sure about this one, but it's close enough. The first
note barely sounds.
|--------|
|--------|
|--------|
|-6/7~---|
|-6/7~---|
|-6/7~---|

That's it. The easiest song EVER. If you can't play it, you
suck. There's lots of distortion, and little effects. I'm 
about 95% sure the main riff is right.


Next up: Nevermore's Dreaming Neon Black, and Offspring's 
Original Prankster.

Ta, 
Sean Stinson.


*********************************************************************************************************
[ Tab from: http://www.guitartabs.cc/tabs/l/limp_bizkit/rollin_tab_ver_6.html ]
Limp biskit
rollin' (air raid vehicle)
Chocolate starfish

tabbed by fco barros (chanchofbp@hotmail.com)
Comments suggestions are welcome.

Note: please look at the video of this song, you'll see that Wes B. play the 
main riff in the second fret
so here is the real tuning:

Tuning:
1: C#  4: B
2: G#  5: F#
3: E   6: B

intro (chorus)
|---------------------------------------------|
|---------------------------------------------|
|---------------------------------------------|
|-2-2-2---/9-9-9-9-9--\-2-2-2---/9-9-9-9-9----|
|---------------------------------------------|
|---------------------------------------------|

|--------------------------------|
|--------------------------------|
|--------------------------------|
|-2-2---7---5---4----2\---2\-----|
|-2-2---7---5---4----2\---2\-----|
|-2-2---7---5---4----2\---2\-----|


verse:
|------------------------------------------------------|
|------------------------------------------------------|
|------------------------------------------------------|
|-2\------2\-----2\----2-2-2-2-7-7-7-7-5-5-5-5-4-4-4-4-|
|-2\------2\-----2\------------------------------------|
|-2\------2\-----2\------------------------------------|
                       |--------------PM--------------|

(chorus)

verse
|---------------------------------------------------|
|---------------------------------------------------|
|---------------------------------------------------|
|-2-2-2-2-7-7-7-7-5-5-5-5-4-4-4-4---2\---2\---2\----|
|-2-2-2-2-7-7-7-7-5-5-5-5-4-4-4-4---2\---2\---2\----|
|-2-2-2-2-7-7-7-7-5-5-5-5-4-4-4-4---2\---2\---2\----|
   |--------------PM--------------|

(chorus)

interlude (...i guess)
|---------------|------------------------------------|
|---------------|------------------------------------|
|---------------|------------------------------------|
|--2\-----2\----|------------------------------------|





Comments