Limp Bizkit - Rollin Chords & Tabs

 

Rollin Chords & Tabs

Limp Bizkit Chords & Tabs

Version: 4 Type: Tab 0 ratings
1 star 2 stars 3 stars 4 stars 5 stars
comments

Rollin Tab

   
Song: Rollin'
Band: Limp Bizkit

Tuning (low to high): Db Ab Db Gb Bb Eb

Riff A:
-----------------------------
-----------------------------
-7--7--7--14--14--14--10-10--
-----------------------------
-5--5--5--12--12--12--8--8---
-----------------------------
[ Tab from: http://www.guitartabs.cc/tabs/l/limp_bizkit/rollin_tab_ver_4.html ]
Riff B:
------------------------------------
------------------------------------
------------------------------------
-0-0-0-7-7-7-3-3-3-2-0-2------------
-0-0-0-7-7-7-3-3-3-2-0-2-5\--5\--5\-
-0-0-0-7-7-7-3-3-3-2-0-2-0---0---0--

Riff C:
------------------------------------
------------------------------------
------------------------------------
-------7-7-7------------------------
-5-5-5-------8-8-8-7-5-7-5\--5\--5\-
-------------------------0---0---0--

|-----------------------------------|

Riff D:
-------
-------
-------
-------
-5\-5\-
-0--0--

|------|

Legend:
\ = Slide down
|--| = palm mute
Comments