Limp Bizkit - Rollin Chords & Tabs

 

Rollin Chords & Tabs

Limp Bizkit Chords & Tabs

Version: 13 Type: Tab 0 ratings
1 star 2 stars 3 stars 4 stars 5 stars
comments

Rollin Tab

    D|-----------19--------------------------------------|
    A|--17-----------18----------------------------------|
    F|---------------------------------------------------|
    C|---------------------------------------------------|
    G|---------------------------------------------------|
    D|---------------------------------------------------|

     INTRO/VERSE GUITAR 2:

    D|-----------------------------------24--------------|
    A|-----------------------------22--------------------|
    F|--------------------------22-----------------------|
    C|---------------------------------------------------|
    G|---------------------------------------------------|
    D|---------------------------------------------------|
[ Tab from: http://www.guitartabs.cc/tabs/l/limp_bizkit/rollin_tab_ver_13.html ]
     PRE-CHORUS:
  
    D|------------------------------------------------------|
    A|------------------------------------------------------|
    F|--13/14\13-----13-----------13/14\13----13---------0--|
    C|---x------------x------------x-----------x------------|
    G|--11/12\11-----11-----------11/12\11----11-----8------|
    D|---0--------0----------------0--------0---------------|
    
     CHORUS:

    D|--0--0--0--0--0--0--0--0---------------------|
    A|--4--4--4--4--4--4--4--4-----------0------0--|
    F|--4--4--4--4--4--4--4--4--3--3--3--4------2--|
    C|--4--4--4--4--4--4--4--4--4--4--4--5------3--|
    G|--2--2--2--2--2--2--2--2--4--4--4--5------3--|
    D|--------------------------2--2--2--3------1--|

     INTERLUDE: (where jon does his jibberish shit)

    D|--10--10---10--10-9-10-9--|
    A|--------------------------|
    F|--------------------------|
    C|--------------------------|
    G|--------------------------|
    D|--------------------------|

     BRIDGE: (really heavy part)

    D|-----------------|
    A|-----------------|
    F|-----------------|
    C|-----------------|
    G|--4---5---6---7--|
    D|--4---5---6---7--|
Comments