Limp Bizkit - Rollin Chords & Tabs

 

Rollin Chords & Tabs

Limp Bizkit Chords & Tabs

Version: 4 Type: Bass Tab 0 ratings
1 star 2 stars 3 stars 4 stars 5 stars
comments

Rollin Bass Tab

Artist : Limp Bizkit 
Song : Rollin' 
Album : Chocolate Starfish and the Hot Dog Flavored Water 
Tabbed By : Shawn Grey (ltjmxpx76@aol.com) 

  INTRO  x8 
G|-----------------------------  
D|----------------------------- 
A|-------11-11-11-7-7---------- 
E|-9-9-9----------------------- 
[ Tab from: http://www.guitartabs.cc/tabs/l/limp_bizkit/rollin_btab_ver_4.html ]
   Chorus x4 
G|---------------------------------------------- 
D|---------------------------------------------- 
A|---------------------------------------------- 
E|--0-0-0-5-5-5-4-4-4-3-3-3-2-2-1-1-9\-9\-9\---- 

   Verse x3 
G|---------------------------------------------- 
D|---------------------------------------------- 
A|---------------------------------------------- 
E|--0-0-0-5-5-5-4-4-4-3-3-3-2-2-1-1-9\-9\-9\---- 

   Pre - Chorus 
G|-----------------------------  
D|----------------------------- 
A|-------11-11-11-7-7---------- 
E|-9-9-9----------------------- 
Comments