Limp Bizkit - Rollin Chords & Tabs

 

Rollin Chords & Tabs

Limp Bizkit Chords & Tabs

Version: 3 Type: Bass Tab 0 ratings
1 star 2 stars 3 stars 4 stars 5 stars
comments

Rollin Bass Tab

   
Song: Rollin'
Band: Limp Bizkit
Album: Chocolate Starfish & The Hotdog Flavoured Water
Tabbed by: Drew Jamieson creepin@metallica.com 

Tuning: C#, F#, B , E (Low to High)

1)
E-------------------
B-------------------
F#------------------
C#-0-0-0-7-7-7-3-3--
[ Tab from: http://www.guitartabs.cc/tabs/l/limp_bizkit/rollin_btab_ver_3.html ]
2)
E-------------------------------
B-------------------------------
F#--------------------7\-7\-7\--
C#-0-0-7-7-5-5-3-3-3------------
Chorus, Verse, (with slight variations)

3)
B----------------
E----------------
F#-7\----7\------
C#---------------

\= Slide down to around the 4th fret and as the note fades

On riff 2) It is used for the "Move in, Move out" and also for the "Rollin' Rollin'" It isn't played exactly the same for those 2 vocal lines but the notes are the same just altar the rhythm slightly. 

On riff 3) It is used in the 3rd verse in between the singing just listen and you will hear it.
Comments