Limp Bizkit - Rearranged Chords & Tabs

 

Rearranged Chords & Tabs

Limp Bizkit Chords & Tabs

Version: 1 Type: Tab 0 ratings
1 star 2 stars 3 stars 4 stars 5 stars
comments

Rearranged Tab

   
Author Limp Bizkit
Album : Significint Other
Song : Re-Arranged
Lead Guitarist : Wes Borland
Tabed by : Josh Borlos
Note : This is 100% accurate. And if you dont believe me then dont! Few things maybe laid out wrong, 
but if you can figure it out the right way then good for you! ( if there is any mistakes, please tell me )

Tuning : ( From low to high ) C# F# B E G# C#
String # : 6 ( originaly played with 7 )


x = mute
~ = hold 
^ = bend half
/ = slide
h = hammer
p = pull off



---Verse---


|--3---0-----------3---0-----------3---0-----------|
|--------------------------------------------------|
|--------------------------------------------------|
|-----14--14--14--14--14--14--14--14--14-----------|
|--------------------------------------------------|
|------12--12--12--12--12--12--12--12--12----------|

To play this...

LEFT HAND : Hammer on 3 and pull off to 0
RIGHT HAND : Hammer with middle and ring finger from 14 onto 12 

You basicly play this as the main verse

|--7---0-8-----7---0-8-------7---0-8-0-------------|
|--------------------------------------------------|
|--------------------------------------------------|
|-----14--14--14--14--14--14--14--14--14-----------|
|--------------------------------------------------|
|------12--12--12--12--12--12--12--12--12----------|

To play this...

LEFT HAND : The exact same as the other verse, but when hammering on to 7, just pull off and hammer on to the 8 which automaticly brings in the 0
RIGHT HAND : Hammer with the middle and ring finger from 14 onto 12

|-------------------------------------------|
|-------------------------------------------|
|-------------------------------------------|
|------14-----------15----------------------|
|-------------------------------------------|
|--12------12---13------13------------------|

Just play this after u play the verse


---Solo--- 

[ Tab from: http://www.guitartabs.cc/tabs/l/limp_bizkit/rearranged_tab.html ]
|---------------------------2--3~--------2--3~-0---------------10--------------------15-------|
|---------------------------------------------------------------------------------------------|
|--9----/7~------------------------------------------9--7~--------------11-11-12--------------|
|---------------------------------------------------------------------------------------------|
|---------------------------------------------------------------------------------------------|
|---------------------------------------------------------------------------------------------|

|---------12---12------------12---12----------10----10----------1-0---10-----------------15---|
|---------------------------------------------------------------------------------------------|
|--9--9-------------9---9--------------7--7--------------7--7----------------11--11-12--------|
|---------------------------------------------------------------------------------------------|
|---------------------------------------------------------------------------------------------|
|---------------------------------------------------------------------------------------------|

*This is the whole thing, but in the background there's another guitar sound just playing
C#|--2---3~------5-p0---------
G#|---------------------------
E |---------------------------


---BreakDown---

|--------------------------------------------------|
|-17-----------------------------------------------|
|--x-----------------------------------------------|
|-14--(x12)----12---(x8)---4---(x2)---5--(x3)------|
|--x------------x----------x----------x------------|
|--0-----------10----------2----------3------------|

Thats the first one, then it changes into this

|--------------------------------------------------------------------|
|-17-----------------------------------------------------------------|
|--x---------16----------17------------------------------------------|
|-14--(x6)----x---(x2)----x--(x3)----12--(x8)---4---(x2)--5----(x3)--|
|--x---------14----------15-----------x---------x---------x----------|
|--0----------0-----------0----------10---------2---------3----------|

|------------------------------------|
|-17---------------------------------|
|--x-----16----17----16--------------|
|-14------x-----x-----x--------------|
|--x-----14----15----14--------------|
|--0------0-----0-----0--------------|

This is after the main part of the breakdown
Then u play *

Well, thats the whole song! hope u enjoy! Rock on!!!







Comments