Limp Bizkit - Rearranged Chords & Tabs

 

Rearranged Chords & Tabs

Limp Bizkit Chords & Tabs

Version: 2 Type: Bass Tab 0 ratings
1 star 2 stars 3 stars 4 stars 5 stars
comments

Rearranged Bass Tab

Song: Rearranged
Artist: Limp Bizkit
Album: Significant Other
Tabbed By: Ba$$ Lizard
Original Author: BassmstrJ2

The original tab had the verse correct, but the chorus and bridge were wrong. This song
is pretty easy once you figure out the fingerings.  Although Sam Rivers uses a 5-String,
he doesn't use the Low B in this song. 

Verse

G:---------------------------------11
D:------11-9--9h10p9-8--8h9p8---11---
A:---11-----------------------9------
E:-9---------------------------------
B:-----------------------------------        Repeat this a lot of times.


Chorus (Cause you and me, We're through and Rearranged)

G:--------------------------------------------------------
D:--------------------------------------------------------
A:---------------------------------6---6---6-6-6-6-6-6-6-6
E:-9-9-9-9-9-9-9-9-9-9-9-9-7-7-7-7---7---7----------------
B:-------------------------------------------------------- Play this twice.

[ Tab from: http://www.guitartabs.cc/tabs/l/limp_bizkit/rearranged_btab_ver_2.html ]
Now play the verse a bunch of times, followed by the chorus.  The chorus repeats a few
more times this time, but the bass stays the same.

Then when everything slows down play these octaves:

G:-----------------------------------------------------------6h8-----8---
D:----11-----11-----11----11----11-----11-----9-----9--------------------
A:--------------------------------------------------------6-------6------
E:-9------9------9-----9-----9------9------7-----7-----7-----------------
B:-----------------------------------------------------------------------

Repeat this until everything rocks out, then play:

G:----------------------------------
D:----------------------------------
A:--------------------------6----6-7
E:--9--9-9-9--9--9--7--7--7---7-----
B:----------------------------------

X:--q--s-s-q--e--e--e--q--s-s-q--e-q
since the rythm to this part is a little tricky, heres the timing.*

Then go back to the verse for the outro.

*the symbols mean:

q= quarter note
e= eighth note
s= sixteenth note

Comments