Limp Bizkit - Re Arranged Chords & Tabs

 

Re Arranged Chords & Tabs

Limp Bizkit Chords & Tabs

Version: 5 Type: Bass Tab 0 ratings
1 star 2 stars 3 stars 4 stars 5 stars
comments

Re Arranged Bass Tab

   
song:rearranged	  by:limp bizkit
BASS TAB
tabbed by:ahmad shokair
date:26/8/2003

standard tuning E A D G 

INTRO:

G|-------------------------------------11-----------|
D|-------11-------------------------11--------------|
A|----11-----14--14/16/13---13/14/9-----------------|
E|--9-----------------------------------------------|

VERSE:
SAME AS INTRO

CHORUS:

G|---------------------------------------------------------------|
D|---------------------------------------------------------------|
A|---------------------------------------------------------------|
E|--9-9-9-9-9------7-7-7-7-7------11-11-11-11-11--12-12-12-12-12-|

AT 2:17 PLAY
[ Tab from: http://www.guitartabs.cc/tabs/l/limp_bizkit/re_arranged_btab_ver_5.html ]
G|------------------------------------------------------------------------------|
D|-------11----11---------11----11----------9---9-----9---9--------13----13-----|
A|----11----11--------11-----11-----------9---9-----9---9-------13----13--------|
E|--9-------------9-9--------------9/7-7----------7--------7/11--------------12-|


CHORUS:

G|---------------------------------------------------------------|
D|---------------------------------------------------------------|
A|---------------------------------------------------------------|
E|--9-9-9-9-9------7-7-7-7-7------11-11-11-11-11--12-12-12-12-12-|

OUTRO:
G|-------------------------------------11-----------|
D|-------11-------------------------11--------------|
A|----11-----14--14/16/13---13/14/9-----------------|
E|--9-----------------------------------------------|
MAIL ME AT:JIMMY_INVALID@HOTMAIL.COM
Comments